Song name
# A B C D E F G H I J K L M N O P Q R S T U V W X Y Z

Tim Skold - The Hunger chords

Highlighted       Show chord diagrams
Hello, that's my version of "The Hunger" by Tim Skold

(/) Slide Up  (\) Slide Down  (h) Hammer On  (p) Pull Off  (b) Bend (r) Release (v) Vibrato

Intro

    Am   Am            Dsus  G  G    C   Em
E|--0----0-------------------3--3----------|
B|--1----1--------------3----3--3----------|
G|--2----2--------------2----0--0----------|
D|--2----2--------------0----0--0----2--0--|
A|--0----0--0--0--2--3-------2--2----3--2--|  x2
E|---------------------------3--3----------|

    Am   Am            Dsus  G  G    C   Em
E|--0----0-------------------3--3----------|
B|--1----1--------------3----3--3----------|
G|--2----2--------------2----0--0----0-----|
D|--2----2--------------0----0--0----2-----|
A|--0----0--0--0--2--3-------2--2----3--2--|  x2
E|---------------------------3--3-------3--|

Verse
Am                             Em
This town ain't big enough for both of us
Am                             Em
And it's not me who's gonna leave
Am                             Em
There's not enough here for the two of us
Am                             Em            F5
It doesn't matter what you think
F5                               G5
There can't be a rapture without sin

Rit
    Am                 Dsus           G  G    C   Em
E|--0---------------------------------3--3----------|
B|--1-------------------3-------------3--3----------|
G|--2-------------------2-------------0--0----------|
D|--2-------------------0-------------0--0----2--0--|
A|--0---------------------------------2--2----3--2--|
E|------------------------------------3--3----------|
You get what you're waiting for, hold on
  G                      C   Em
E|3----------------------3----3--|
B|3----------------------3----3--|
G|0----------------------0----0--|
D|0----------------------2----0--|
A|2----------------------3----2--|
E|3------------------------------|
When the darkness creeps in
Am                     Dsus         G
You get what you're longing for, so long
G                     C          Em           Am
When the night closes in and the hunger begins


The story seems to want to write itself but
We're running out of ink
The ending credits are rolling by but
The silly cast don't want to leave

There can't be a rapture without sin

You get what you're waiting for, hold on
When the darkness creeps in
You get what you're longing for, so long
When the night closes in and the hunger begins

B                          Dm
So now you see it, now you don't
B                          Dm
And this is everything you could want
B                          Dm
But now you see it, now you don't
B                          Dm
You know you should hold on, but you won't

You get what you're waiting for, hold on
When the darkness creeps in
You get what you're longing for, so long
When the night closes in and the hunger begins
Tap to rate this tab
# A B C D E F G H I J K L M N O P Q R S T U V W X Y Z