Song name
# A B C D E F G H I J K L M N O P Q R S T U V W X Y Z

Timbaland Feat Katy Perry - If We Ever Meet Again tab

|-----------------------------------------------------------------------------|
|-----------------------------------------------------------------------------|
|-----------------------------------------------------------------------------|
|---3333---6----8----33343-------------333---6---8----33343-------------------|
|--3-------------------------4---1----3-----------------------4---1-----------|
|-----------------------------------------------------------------------------|

------------------------------------------------------------------------------|
------------------------------------------------------------------------------|
------------------------------------------------------------------------------|
-----333-3333---11111111---------4444--------3333--6---8----33343-------------|
--3-------------------------44444------444--3------------------------4----1---|
------------------------------------------------------------------------------|

------------------------------------------------------------------------------|
------------------------------------------------------------------------------|
------------------------------------------------------------------------------|
--3-445-7-8--5\7--33333334---3-445-7-8-5\7--33333334---9-4-1--9-4-1--9--------|
------------------------------------------------------------------------------|
------------------------------------------------------------------------------|

-----------------------------------------------------------------------------|
-----------------------------------------------------------------------------|
-----------------------------------------------------------------------------|
4-1--999-4-899----3-445-7-8--5\7---33333334---------------------33333334-----|
-----------------------------------------------------------------------------|
-----------------------------------------------------------------------------|
Tap to rate this tab
 
# A B C D E F G H I J K L M N O P Q R S T U V W X Y Z