Guitaretab - guitar tabs
Song name
# A B C D E F G H I J K L M N O P Q R S T U V W X Y Z

Timbaland - The Way I Are tab

These chords play through the whole song:

   Abm   F#                
E|--4----2--|
B|--4----2--|
G|--4----3--|
D|--6----4--|
A|--6----4--|
E|--4----2--|

It should go like this...

Abm                         F#                          Abm
Oh, baby, itís alright now, you ainít gotta flaunt for me.
                         F#                      Abm
If we go touch, you can still touch my love is free.
                F#                           Abm
We can work without the perks, just you and me.
                      F#
Thug it out 'till we get it right.


Riff 1:
  Abm              F#
E|----------------|----------------|
B|----------------|----------------|
G|----888-666-----|----------------|
D|------------888-|444-888-444-666-|
A|----------------|----------------|
E|444-------------|----------------|
  1 + 2 + 3 + 4 +  1 + 2 + 3 + 4 + 

[ Tab from: http://www.guitaretab.com/t/timbaland/100566.html ]
Riff 2 ("Push It" riff):
  Abm              F#
E|----------------|----------------|
B|----------------|----------------|
G|----------------|----------------|
D|6-----6-------4-|--------8-9-8---|
A|----6-----6-----|--6---6-------9-|
E|----------------|----------------|
  1 + 2 + 3 + 4 +  1 + 2 + 3 + 4 + 


Riff 3:
  Abm      F#
E|--------|-----------------------|
B|--------|------------16----16---|
G|--------|---------13----13------|
D|--------|-----------------------|
A|--------|-----------------------|
E|--------|-----------------------|
  1+2+3+4+ 1  +  2  +  3  +  4  +


Ending riff:
  Abm              F#               Abm              F#
E|----------------|----------------|----------------|----------------|
B|----------------|----------------|----------------|--------16--16--|
G|------4---6---3-|------3---------|------4---6---3-|------13--13----|
D|--6-------------|--4-------4---6-|--6-------------|--4-------------|
A|----------------|----------------|----------------|----------------|
E|----------------|----------------|----------------|----------------|
  1 + 2 + 3 + 4 +  1 + 2 + 3 + 4 +  1 + 2 + 3 + 4 +  1 + 2 + 3 + 4 + 
Related for The Way I Are tab