Song name
# A B C D E F G H I J K L M N O P Q R S T U V W X Y Z

Timbaland - Apologize Acoustic tab

/* mga tol timo to, first tym ko mag submit ng tabs sana tangkilikin niu
gawa gawa ko lng to, pero satingin ko maganda naman xa try niu nlng,
para sa soleraband, at sa Section IA! */

TITLE: APOLOGIZE (ACOUSTIC VERSION)
ARTIST: ONE REPUBLIC
TUNING: standard
author: timothy sevilla

|-------------------|-------------------|-------------------|--------------------|
|--4-------4--------|--6-------6--------|--8-------8--------|--8--------8--------|
|------5-------5----|------5-------5----|------8-------8----|-------7-------7----|
|----5---5---5---5--|----6---6---6---6--|----8---8---8---8--|-----8---8---8---8--|
|--3----------------|-------------------|--6----------------|--5-----------------|
|-------------------|--4----------------|-------------------|--------------------|


/* PLAY NIU LNG YAN PWDE NMN XA BUONG KNTA EH,PLAY NIU UNG SONG WHILE SINUSUBUKAN TO */

LYRICS:

I'm holding on your rope,
Got me ten feet off the ground
I'm hearin what you say but I just can't make a sound
You tell me that you need me
Then you go and cut me down, but wait
You tell me that you're sorry
Didn't think I'd turn around, and say that...

It's too late to apologize, it's too late
I said it's too late to apologize, it's too late
I'd take another chance, take a fall
Take a shot for you
And I need you like a heart needs a beat
But it's nothing new
I loved you with a fire red-
Now it's turning blue, and you say...
"Sorry" like the angel heaven let me think was you
But I'm afraid...

/* DUN SA LYRICS NA "I LOVED YOU W/ A FIRE RED-" HANGGANG "SAY" 
SABAY NIU TOH,,*/

|-------6h8-------|                                             
|---6h8-----------|
|-----------------| PAULIT ULIT YAN TIMING NIU LNG, 
|-----------------| 
|-----------------|
|-----------------|

TPOS SA "SORRY LIKE THE ANGEL..

|----------11h13--|
|----11h13--------|
|-----------------|
|-----------------|
|-----------------|
|-----------------|

/* MAGANDA DITO KAU MAGSTRUM SECOND CHORUS */

It's too late to apologize, it's too late
I said it's too late to apologize, it's too late

/* TINATAMAD AKO GAWIN UNG PART N TO,TINGIN NLNG KAYO SA IBA, */

Bridge (guitar/piano)

/* HOLD KAU PAGTAPOS NG PART NA TO THEN PASOK ULIT PAG KANTA SA CHORUS */

It's too late to apologize, it's too late
I said it's too late to apologize, it's too late
It's too late to apologize, yeah
I said it's too late to apologize, yeah-
I'm holdin on your rope, got me ten feet off the ground...

/* YAN LNG UN SALAMAT SA GITARA KO,HEHEHE 
PARA SA MGA KATANUNGAN,SUGGESTIONS,VIOLENT REACTION HEHHE 
KONTAK NIU LNG AKO timobota@yahoo.com.ph */

Tap to rate this tab
# A B C D E F G H I J K L M N O P Q R S T U V W X Y Z