Guitaretab - guitar tabs
Song name
# A B C D E F G H I J K L M N O P Q R S T U V W X Y Z

Timbaland - One And Only tab

-------------------------------------------------------------------------------
			     One and Only - Timbaland feat. Fall Out Boy
-------------------------------------------------------------------------------
Tabbed by:NandoD

Tuning:Standard

This is pretty much how the song goes I think. It's pretty simple.
[ Tab from: http://www.guitaretab.com/t/timbaland/154009.html ]
Intro - Played with a delay-ish effect I'm guessing
E||-----------------------|-------------------------|
B||-----------------------|-------------------------|
G||--11-------------------|--11----12---------------|
D||--12----9----9----9----|-------------------------|
A||-----------------------|-------------------------|
E||-----------------------|-------------------------|

or if you don't own a pedal or for whatever reason don't wanna use one...
E||-----------------------|-------------------------|
B||-----------------------|-------------------------|
G||--11-------------------|--11----12----x----11-12-|
D||--12----9----9----9----|--------------x----------|
A||-----------------------|-------------------------|
E||-----------------------|-------------------------|

and Chorus - figure out the rhythm yourself, it's not hard.
E||-----------------|
B||-----------------|
G||--4--------------|
D||--4----5----2----|
A||--2----5----2----|
E||-------3----0----|


www.timbalandmusic.com
Related for One And Only tab
Advertisement will be closed in 10 seconds