Song name
# A B C D E F G H I J K L M N O P Q R S T U V W X Y Z

Timbaland - Timothy Where Have You Been chords

Highlighted       Show chord diagrams
-----------------------------------------------------------------------------
Timothy Where Have You Been  Timbaland ft Jet
-----------------------------------------------------------------------------
Tabbed by: Wiley0312
Email: joshs_girl20@hotmail.com

Tuning: Standard

e|----------222----22------|
B|-----------------33--2---|
G|-----------------22--2---|  
D|--2--2---------------2---|
A|--2--2----222------------|
E|----------333------------|


REPEAT this chord progression for the whole song.  So easy but awesome song, ENJOY!

Em   G   D   A
Tap to rate this tab
# A B C D E F G H I J K L M N O P Q R S T U V W X Y Z