Song name
# A B C D E F G H I J K L M N O P Q R S T U V W X Y Z

Timbaland - If We Ever Meet Again tab

i dont kno tuning i just did it by ear right quick....


intro 
  g         c         e         c
[----------------------------------------]
[--------------1--1------0--0------1--0--]
[----0--0-----0-0-------0-0-------0-0--0-]
[---0-0------2---2-2---2---2-2---2---2---]
[--2---2-2--3---------2---------3--------]
[-3--------------------------------------]

repeat intro 5x
   g  c  e  c  c
[--3--0--0--0--3--]
[--0--1--0--1--1--]
[--0--0--0--0--0--]
[--0--2--2--2--2--]
[--2--3--2--3--3--]
[--3--0--0--0--0--]

repeat cord progression and mute after every strum....
thats how i play it sounds good.. pleas no grief my first tab enjoy!!
comment  
Tap to rate this tab
 
# A B C D E F G H I J K L M N O P Q R S T U V W X Y Z