Timbaland - Say Something tab

-------------------------------------------------------------------------------
			     Say Something - Timabaland
-------------------------------------------------------------------------------
Tabbed by:TikiMan100

Should work with Wah Wah effect

Tuning:Standard

e|------------------------------|
B|------------------------------|
G|-----------------------11-----|
D|----------9--13--11--9--------|
A|---9--11----------------------|
E|------------------------------|

e|------------------------------|
B|------------------------------|
G|-----------------------13-----|
D|---------9--13--9-------------|
A|---9--11-----------11---------|
E|------------------------------|
 
That pretty much it thoughtout the whole song
Tap to rate this tab
 
# A B C D E F G H I J K L M N O P Q R S T U V W X Y Z