Song name
# A B C D E F G H I J K L M N O P Q R S T U V W X Y Z

Timbaland - Throw It On Me tab

-------------------------------------------------------------------------
	          Throw It On Me - Timbaland feat The Hives
-------------------------------------------------------------------------
Tabbed by: Juggins767
Email: airguitardude52@msn.com

Tuning: EADGBE

I came across this song on youtube watching the new Hives video for Tick Tick Boom.
Instantly loved it. Really simple to play. Here's the basic jist of it.
You need a nice fuzzy electronicy sound for parts, work out the effects for yourself its more fun that way.



e|-------------------------------------------------------------------------|
B|-------------------------------------------------------------------------|
G|-------------------------------------------------------------------------|
D|---------x-x-3---5b6b5--3----------x-x-3---5b6b5--3----------------------|
A|----5-5-----------------------5-5----------------------------------------|
E|-------------------------------------------------------------------------|

Or in parts it's more

e|-------------------------------------------------------------------------|
B|-------------------------------------------------------------------------|
G|-------------------------------------------------------------------------|
D|----------3---5-6-5--3--------------3---5-6-5--3-------------------------|
A|----5------------------------5-------------------------------------------|
E|-------------------------------------------------------------------------|


Thats BASICLY it.

Those high pitched squealy notes are just D notes by the way.
Tap to rate this tab
# A B C D E F G H I J K L M N O P Q R S T U V W X Y Z