Timber Timbre - Grand Canyon chords

Highlighted       Show chord diagrams
C G F

C
|-0-----------------|
|-1-----------------|
|-0-----------------|
|-2-----------------|
|-3-----------------|
|-0-----------------|

G
|-3-----------------|
|-3-----------------|
|-0-----------------|
|-0-----------------|
|-2-----------------|
|-3-----------------|


F
|-1-----------------|
|-1-----------------|
|-2-----------------|
|-3-----------------|
|-3-----------------|
|-1-----------------|

Intro
C

C
From the Phoenix liftoff        
                            G
Somewhere over Blackfoot reserve

High above Drumheller
                           F
Sky hostess starts to serve

Cloud shadows on the mountain
                                  C
And our shadow on the mountainside

After Salt Lake City
                          G
I have time to close my eyes

Before the Grand Canyon
                            F
Swallows us as we move south

I pray the Grand Canyon
                               C
Take our plane inside its mouth

[Solo]

C
We know the material
                                  G
And these songs, the serious lines

Under palms ethereal
                              F
In Hollywood's mysterious wild

These are coarse imaginings
                                C
Where cannibal inspectors thrive

On delirious ramblings
                               G
Now in real and troubling times

 
In the warm confusion
                              F
Of the looming foliage outside

The motel room obscura
                             C
A divining by Venetian blinds

[Outro]
Tap to rate this tab
 
# A B C D E F G H I J K L M N O P Q R S T U V W X Y Z