Song name
# A B C D E F G H I J K L M N O P Q R S T U V W X Y Z

Timbuktu - Resten Av Ditt Liv tab

              Resten av ditt liv - Timbuktu


Tuning: Standard (EBGDAE)

Intro: 2X(Det är lite annorlunda andra gången)
E|-----------8-8-8-8-8-8-8---------8-8-8-8-8-8-8----------|
B|-8-10-8-10---------------10-8-10---------------10-8-10--|
G|--------------------------------------------------------|
D|--------------------------------------------------------|
A|--------------------------------------------------------|
E|--------------------------------------------------------|

E|-8-8-8-8-8-8-8------------------------------------------|
B|---------------10-8-10-8--------------------------------|
G|--------------------------------------------------------|
D|--------------------------------------------------------|
A|--------------------------------------------------------|
E|--------------------------------------------------------|


Chords: C, F, D, G 

Rekommenderar: 
   C       F       D       G
E|-7-|  E|-7-|  E|-5-|  E|-3-|
B|-7-|  B|-8-|  B|-6-|  B|-3-|
G|-8-|  G|-9-|  G|-7-|  G|-4-|
D|-9-|  D|-9-|  D|-7-|  D|-5-|
A|-9-|  A|-7-|  A|-5-|  A|-5-|
E|-7-|  E|-x-|  E|-x-|  E|-3-|

               C
Jag hoppas att ditt vin blir till vatten
F
Blixtar prickar dig
D                   G
Hälsa till satan, vi hörs
               C
Jag hoppas att olika olyckor händer
F
Du vet vad jag känner
D              G
Jag vet att du hör

Tabbed by: Sebastian Jacobsson
Tap to rate this tab
 
# A B C D E F G H I J K L M N O P Q R S T U V W X Y Z