Song name
# A B C D E F G H I J K L M N O P Q R S T U V W X Y Z

Timbuktu - The Botten Is Ndd tab

The båtten is nådd
tabbed by: Zucconi

C                F                            C   
|---------------------------------------------|
|--3-----------------------------------3------|        
|-----2---0p2p3---3--0-0p2--2--0---------2----|        
|-----0-----------2------------0---------0----|       
|-----1-----------1------------1---------1----|  
|-----0-----------0------------0---------0----|  x2        


Am        G        F
|-----------3------1------1------|
|--0-----------------------------|
|-----2--------0-----3------3----|
|-----2--------0-----2------2----|
|-----1--------0-----1------1----|
|-----0--------3-----1------1----| x2
Tap to rate this tab
 
# A B C D E F G H I J K L M N O P Q R S T U V W X Y Z