Song name
# A B C D E F G H I J K L M N O P Q R S T U V W X Y Z

Timbuktu - Alla Vill Till Himlen tab

Introt till Timbuktu (x2)

E:-------------12---------------------10-----|
B:------10---------10---------10-------------|
G:---9--------------------10--------------10-|
D:7---------7--------------------------------|
A:---------------------8----------10---------|
E:-------------------------------------------|

E:-------------12----------12-----------------|
B:------10---------10----------10----------12-|
G:---9-----------------10--------------10-----|
D:7---------7---------------------------------|
A:---------------------------------10---------|
E:--------------------------------------------|

Lyssna på låten samtidigt när du spelar, så du spelar i rätt tempo.

Lycka till nu / Tenfält.
Tap to rate this tab
# A B C D E F G H I J K L M N O P Q R S T U V W X Y Z