Guitaretab - guitar tabs
Song name
# A B C D E F G H I J K L M N O P Q R S T U V W X Y Z

Time-lapse Consortium - Cholula W Both Solos And Bridge tab

-----------------------------------------------------------------------------
			     Cholula - Time Lapse Consortium (Incubus)
-----------------------------------------------------------------------------
Tabbed by: Phil Dimotsis
Email: pjd1024@vt.edu

Tuning: Standard


Verse/Main Part

------------------------------------------------|
------------------7------9--------7----9-9------|
------------------7------9--------7----9-9------|
------------------------------------------------|
------------------------------------------------|
---0--/12--0--7-----xx-----0--7----x------------|

-----------------------------------------|
---------5------7---------5-----7--------|
---------5------7---------5-----7--------|
-----------------------------------------|
-----------------------------------------|
---0--5-----xx-----0--5------x-----------|

----------------------------------------|
----------7------9--------7----9-9------|
----------7------9--------7----9-9------|
----------------------------------------|
----------------------------------------|
----0--7-----xx-----0--7----x-----------|

-------------------------------------------|
---------5------7---------5-----7-----8----|
---------5------7---------5-----7-----8----|
-------------------------------------------|
-------------------------------------------|
---0--5-----xx-----0--5------x-----xx------|

1st solo

-----------9-9--7---0---------------12-12---------10-10-----9b----|
---5-/-7-----------------5-5/6-5-3---------10-10---------10----10-|
------------------------------------------------------------------|
------------------------------------------------------------------|
------------------------------------------------------------------|
------------------------------------------------------------------|

------------------------------------------10-10/12--14--------10-14---------|
------------------------9--7--7b------------------------10-12--------10-12b-|
---7-7-h-9-9/11--7------9--7--7b--------------------------------------------|
----------------------------------9-----------------------------------------|
----------------------------------------------------------------------------|
----------------------------------------------------------------------------|
[ Tab from: http://www.guitaretab.com/t/time-lapse-consortium/76604.html ]
------14-15-14-10-----10-14-15-14-10----10-12-10b--12-10-9--|
--12---------------12----------------12---------------------|
------------------------------------------------------------|
------------------------------------------------------------|
------------------------------------------------------------|
------------------------------------------------------------|
               strum quickly
                     |
---10--9------------9----12--------------------|
---------10--------10--------9-----------------|
------------11-----11----------11-9b-7---------|
---------------12--12--------------------9-----|
-----------------------------------------------|
-----------------------------------------------|


2nd solo

---14\\\\--14\\\\-14-14-14-14-10--10--10--10-------10xx10xx9xx---------|
----------------------------------------------------------------12s9---|
-----------------------------------------------------------------------|
-----------------------------------------------------------------------|
-----------------------------------------------------------------------|
-----------------------------------------------------------------------|

------------------------------------10-10-10-10----/14--14---------9-------|
---9b-------------------------------------------------------12-12----12-12-|
------7--9b----------------------------------------------------------------|
------------7-7-7-7h9--77h9--77h9------------------------------------------|
---------------------------------------------------------------------------|
---------------------------------------------------------------------------|

--14-------10-12--------14----12-10-------14-------10s12-10--1010-10-9------|
-----10-12-------10-12-----10-------12-10----12-10---------------------10-7-|
----------------------------------------------------------------------------|
----------------------------------------------------------------------------|
----------------------------------------------------------------------------|
----------------------------------------------------------------------------|

---------9-10/12-----------------------------------|
----7-10---------9/7--9b-7--9s10s9-7---------------|
--7--------------9/7--9b-7--9s10s9-7---------------|
-------------------------------------9-7--7-7-8-9--|
---------------------------------------------------|
---------------------------------------------------|


bridge

---------------------------------7--------|------------5--------------------|
------7---------7------7---------7--------|------------5---------5------5---|
---7--7------7--7----7-7------7--7-----3--|-then----5--5------5--5----5-5---|
-9------9--8-------7-----7--6-------times-|-------7------7--6-------5-----5-|
------------------------------------------|---------------------------------|
------------------------------------------|---------------------------------|

---------5--|
---------5--|
------5--5--|
----4-------|
------------|
------------|


--14-----14-----14-----14-----14-----12----12----12----12----12-----|
----12-----12-----12-----12-----12-----10----10----10----10----10---|
------11-----11-----11-----11-----11-----9-----9-----9-----9-----9--| x2
--------------------------------------------------------------------|
--------------------------------------------------------------------|
--------------------------------------------------------------------|

arrangement

Main Part - play a few times through
1st solo
Main Part
2nd solo
Main Part
Bridge
Main Part
End
Related for Cholula W Both Solos And Bridge tab