Song name
# A B C D E F G H I J K L M N O P Q R S T U V W X Y Z

Time Spent Driving - Glass Rose tab

Glass Rose
Time Spent Driving
Standard Tuning


Intro - Repeat as necessary
                                        \/theres a bend here every now and then b11
e|----------------------------------------------------------------|-----------||-7--
B|----------------------------------------------------------------|-----------||-9-9 end
G|-66-6-66-666-66-6--6b7r6-p4-------------------------------------|-6b7r6-p4--||-9-- chord
D|-77-7-77-777-77-7-----------7-11-11---11--11-11---11-11-11--99-9|----------7||-9-- clean
A|-55-5-55-555-55-5-------------9--9----9---9--9----9--9--9---77-7|-----------||-7--
E|----------------------------------------------------------------|-----------||---
      .    ...    .                     .           .  .  .      . ^every second time around 
  Second guitar plays the same intro just without the bends
 
 Verse - Clean
e|------------------------------------------------------------------------------------|
B|-----9-7------9-7------9------9---------9---------9----------10---9-------10--9---9-|
G|---9--------9--------9------9---11----9---11----9---x2 -9/11---11---11-11-------11--|
D|-7--------7--------7-----11---------9---------9-------------------------------------|
A|------------------------------------------------------------------------------------|
E|------------------------------------------------------------------------------------|
 Something like this in the background.
e|---------------------------------------------------------------------------|
B|---------------------------------------------------------------------------|
G|-----6---6-------6---6-------6------6---6---------6---6-------6------------|
D|---7-------7---7-------7---7------7-------7-----7-------7---7--------------|
A|-5-----5-----5-----5-----5------9-----9-------7-----7-----7----------------|
E|---------------------------------------------------------------------------|


 "And I wonder does she wonder.."
e|---------------------------------------------------------------------------|
B|-----10--10---9---9-----------9/10-------10--10---9---9-----------9/10-----|
G|---9------------------9---9------------9------------------9---9------------|
D|-7------7---7---7---7---7---7-------11------7---7---7---7---7---7----------|
A|---------------------------------------------------------------------------|
E|---------------------------------------------------------------------------|


Chrous (not too sure about this :[ )
e|-------------------|
B|-------------------|
G|-------------------|
D|-4-4--------2-2-2-2|
A|-2-2--4-4---0-0-0-0|
E|------2-2----------|


Bridge/Post chorus 
e|---------------||       |-------------|
B|---------------||listen |-------------|
G|-666-6-66------||for    |-------------|
D|-777-7-77------||the    |--6b7r6-4----|
A|-555-5-55------||bends  |----------7--|
E|---------------||       |-------------|
 |
e|----------------------------------|
B|----------------------------------|
G|-77777777---1111111111111111------|
D|----------------------------------| repeat as necessary
A|-55555555---9-9-9-9-9-9-9-9-------|
E|----------------------------------|



e|---------------------------------------------------------------------------|
B|---------------------------------------------------------------------------|
G|---6-4----6-4----6-----6-4----6-4----4-------------------------------------|
D|--------------------44-----------------------------------------------------|
A|-55----55-----55-----------77-----77---------------------------------------|
E|---------------------------------------------------------------------------|
 | 
e|--------9----------------------------9-- 
Tap to rate this tab
# A B C D E F G H I J K L M N O P Q R S T U V W X Y Z