Song name
# A B C D E F G H I J K L M N O P Q R S T U V W X Y Z

Time Spent Driving - Leaving tab

OMG I can't believe no one knows of this band.
And theres no tabs on UG -_-!
This should be roughly correct.
Any mistakes, please post them in comments


e|-10-------------10--------------10----------13-----------13----------13----|
B|----11----11-------11----11--------11---11-----11---11------11----11-------|
G|-------12----12-------12----12--------12----------12---12------12-------12-|
D|---------------------------------------------------------------------------|
A|---------------------------------------------------------------------------|
E|---------------------------------------------------------------------------|

e|-13----13----13----11----11----11-------------|
B|----11----11----11----11----11----11----------|
G|----------------------------------------------| x4 i think
D|----------------------------------------------|
A|----------------------------------------------|
E|----------------------------------------------|
 |
 |    Theres a bit of palm muting hapening i think (cant really hear it. Seems like just 
lead guitar + bass. Anyways, these are the chords if u wanna play acoustic ^^ )
e|----------------------------------------------|
B|----------------------------------------------|
G|----------------------------------------------|
D|----------------8888-8------------------------|
A|-5555--5-5555---6666-6--8888-8--8888----------|
E|-3333--3-3333-----------6666-6--5555----------|


 "Just so you know..."
e|--------------------------|
B|-11----x6 --10----x6 -----|
G|----12---------12---------|
D|--------------------------|
A|--------------------------|
E|--------------------------|
 |
 | Similarly, the chords would be..
e|--10--------8------------|
B|--11--------10-----------|
G|--12--------10-----------|
D|--12--------10-----------|
A|--10--------8------------|
E|-------------------------|


Outtro - "I don't feel alive.. "
e|----------------------------------------------|
B|-11--x6 --10---x6 --11---x6 --13--x6----------|
G|---12-------12--------12--------15------------|
D|----------------------------------------------|
A|----------------------------------------------|
E|----------------------------------------------|
 |
 | Once again, the alternating chords would be..
e|--10----8----10----13----|
B|--11----10---11----13----|
G|--12----10---12----15----|
D|--12----10---12----15----| ..Until end of song.
A|--10----8----10----13----|
E|-------------------------|
Tap to rate this tab
# A B C D E F G H I J K L M N O P Q R S T U V W X Y Z