Time Spent Driving - Patterson Pass tab

-----------------------------------------------------------------------------
		       PATTERSON PASS - Time Spent Driving
-----------------------------------------------------------------------------

I have been waiting for ever for this tab to show up on here.  This is all i could come 
with.  Play around with this hopefully someone will get the whole thing up here soon.

intro
e|--------------------------------------------------------------------------|
B|--------------------------------------------------------------------------|
G|-----------------4^-----4^--------4^----4^--------4^----4^----4------2~---|
D|-------------4-----4-4----------2---2-2-------2-4---4-4---4-4-------------|
A|-----------2---2------------2h4-------------0-----------------------------|
E|--------------------------------------------------------------------------|
  Silent Steps..

Solo
e|--------------------------------------------------------------------------|
B|--------------------------------------------------------------------------|
G|-4-4-4br--4-4-4br--44-----------------------------------------------------|
D|-4-4-4br--4-4-4br--44--5-5-5-5-5-5----------------------------------------|
A|-2-2-2br--2-2-2br--22--5-5-5-5-5-5----------------------------------------|
E|-----------------------3-3-3-3-3-3----------------------------------------|

Not much but hopefully someone can go from here.
Tap to rate this tab
 
# A B C D E F G H I J K L M N O P Q R S T U V W X Y Z