Song name
# A B C D E F G H I J K L M N O P Q R S T U V W X Y Z

Timeless Miracle - Memories tab

-------------------------------------------------------------------------------
MEMORIES - Timeless Miracle
-------------------------------------------------------------------------------
Tabbed by: FURYOFTHEBIDE
Tuning: Standard

Intro:
e|-------------------------------------------------------------------|
B|-------------------------------------------------------------------|
G|--4-------------------------------------------------2--------------|
D|--4----------------5----------------2---------------2-----2-0------|
A|--2--------4---5---5--------4---5---2-------4---5---0---0-----4-0--|
E|-------------------3----------------0------------------------------|


e|--------------------------------------------------------------------|
B|--------------------------------------------------------------------|
G|--------------------------------------------------------------------|
D|--4-------4h5-4---5-----4h5-4---2------------5---7------------------|
A|--4--------------5--------------2------------5---7------------------|
E|--2--------------3--------------0------------3---5-------5-7-9---5--|

Verse 1:
Moments of happiness, will they ever come back
Embraced by darkness, now that you are gone.
Leaving me, why can't you see
I'm standing in the rain, calling out your name ?

Chorus 1:
In my memories I see you smile
The road to the future was in your eyes
I can see like I used to do
In my memories of you.

Verse 2:
"Searching for my soul..."
e|-----------------------------------------------------------------------------|
B|-----------------------------------------------------------------------------|
G|--4------------------------2------------4-----------------------2------------|
D|--4--------5-------2-------2----3-0-----4-------5-------2-------2-----0-2----|
A|--2--------5-------2-------0--------4-0-2-------5-------2-------0---4-----0--|
E|-----------3-------0----------------------------3-------0--------------------|

"It hurts me so..."
e|---------------------------------------------------------------------------------------|
B|---------------------------------------------------------------------------------------|
G|--4-----------------------2----------------4---2-----------2---------------------------|
D|--4-------5-------2-------2-----5--4-------4---2---5-------2---------------------------|
A|--2-------5-------2-------0-----5--4-------2---0---5-------0---------------------------|
E|----------3-------0-------------3--2---------------3-----------------------------------|

Chorus 2:
"In my memories..." (PM)
e|----------------------------------------------------------------------|
B|----------------------------------------------------------------------|
G|----------7---7-----------------------------4---2---------------------|
D|----------7---7------------7---7------------4---2------------5--------|
A|--5-5-5-5-5---5------------7---7----2-2-2-2-2---0------------5--------|
E|-------------------5-5-5-5-5---5---------------------3-3-3-3-3---3h5--|

"The road to the future..."
e|---------------------------------------------------------------------|
B|---------------------------------------------------------------------|
G|----------7---7--------------------4-------2-------------------------|
D|----------7---7------------7---7---4-------2----------------5--------|
A|--5-5-5-5-5---5------------7---7---2-------0----------------5--------|
E|-------------------5-5-5-5-5---5--------------------3-3-3-3-3---3h5--| X2

"In my memories of you"
e|-----------------------------------------------------------------------|
B|-----------------------------------------------------------------------|
G|-----------7---7----------------------------4---2----------------------|
D|-----------7---7------------7---7-----------4---2-----5--x5--x---------|
A|---5-5-5-5-5---5------------7---7---2-2-2-2-2---0-----5--x5--x---------|
E|--------------------5-5-5-5-5---5---------------------3--x3--x3-333-3--|

e|---------------------------------------------------------------------------------|
B|---------------------------------------------------------------------------------|
G|---------------------------------------------------------------------------------|
D|--7--x7--x-----------------------------------------------------------------------|
A|--7--x7--x-----------------------------------------------------------------------|
E|--5--x5--x5-555-5-5-5------------------------------------------------------------|

Bridge:
"Oh, I saw the light.."

e|-----------------------------------------------------------------------------------|
B|-----------------------------------------------------------------------------------|
G|--7--------------------------------------------------------------------------------|
D|--7---------------5-----4-----5---7------------------------------------------------|
A|--5---------------5-----4-----5---7------------------------------------------------|
E|--5---------------3-----2-----3---5------------------------------------------------| X2

"Shining on me"
e|---------------------------------------------------------------------------------|
B|---------------------------------------------------------------------------------|
G|---------------------------------------------------------------------------------|
D|--4-----5-----4---2--------------------------------------------------------------|
A|--4-----5-----4---2--------------------------------------------------------------|
E|--2-----3-----2---0--------------------------------------------------------------|

Solo:
e|--------------------------------------------------------------------------------|
B|---------------------------------------------------7------------8-7-------------|
G|---------7-----7--9b-r-7--9-9b-r-7--7--9b-r----7-9----7-9---7-9------7---6------|
D|----7-9-----9----------------------------------------------------------------5--|
A|--9-----------------------------------------------------------------------------|
E|--------------------------------------------------------------------------------|

e|--------------------------------------------------------------------------------------|
B|-----------------------------------------7-8--10--------------------------------------|
G|----------------------------------7-9--------------7----------------------------------|
D|------------5-7-7h9-7---9-11----------------------------------------------------------|
A|--------------------------------------------------------------------------------------|
E|--0-002-3-5---------------------------------------------------------------------------|

e|---------------------------------------------------------------------------------------|
B|----7------------7------------7-8--7------7--------------7-----------------------------|
G|--9----7-------9---7-------9-----------9------7--------9---7-------7h6-----------------|
D|------------------------------------------------------------------------7--------------|
A|---------------------------------------------------------------------------------------|
E|---------------------------------------------------------------------------------------|

e|------------------------------------------------------------------------------------|
B|------------------------------------------------------------------------------------|
G|------------------------------------------------------------------------------------|
D|-------0-2-4-5-4-0-2----------------------------------------------------------------|
A|--0-4-------------------------------------------------------------------------------|
E|------------------------------------------------------------------------------------|

Chorus
Chorus (Without PM) X2

************************************

| / slide up
| \ slide down
| h hammer-on
| p pull-off
| ~ vibrato
| + harmonic
| x Mute note
| b Bend
| pb Pre-bend
| br Bend release
| pbr Pre-bend release
| brb Bend release bend

************************************
Tap to rate this tab
# A B C D E F G H I J K L M N O P Q R S T U V W X Y Z