Song name
# A B C D E F G H I J K L M N O P Q R S T U V W X Y Z

Times New Viking - Teen Drama tab

This song is very easy

-------------------------------------------------------------------------------
			     Teen Drama - Times New Viking
-------------------------------------------------------------------------------
Tabbed by: Bobby Hashemi
Email: bobbyhashami@yahoo.com

Tuning:

e|-------------------------------------------------------------------------------------|
B|-------------------------------------------------------------------------------------|
G|----------5-------5-------5------9---------------------------------------------------|
D|--------6---6---6---6---6---6--10----------------------------------------------------|
A|------6-------6-------6------10------------------------------------------------------|
E|-------------------------------------------------------------------------------------|

then play this chourd over a bunch of times

e|------------------------------------------------------------------------------|
B|------------------------------------------------------------------------------|
G|------5------5------5---------------------------------------------------------|
D|------6------6------6---------------------------------------------------------|
A|------6------6------6---------------------------------------------------------|
E|------------------------------------------------------------------------------|
                    ^^^^^^^
sometimes he slides the D string to the 10th fret


other than that

occasionally slide here

e|-----------------------------------------------------------------------------|
B|-----------------------------------------------------------------------------|
G|----9------------------------------------------------------------------------|
D|----10-----------------------------------------------------------------------|
A|----10-----------------------------------------------------------------------|
E|-----------------------------------------------------------------------------|

there isnt much more, like I said easy song, but awesome nonetheless.

| /  slide up
| \  slide down
| h  hammer-on
| p  pull-off
| ~  vibrato
| +  harmonic
| x  Mute note
===============================================================================

http://www.myspace.com/timesnewviking
here's a pitchfork review also
http://www.pitchforkmedia.com/article/record_review/48112-rip-it-off
Tap to rate this tab
# A B C D E F G H I J K L M N O P Q R S T U V W X Y Z