Song name
# A B C D E F G H I J K L M N O P Q R S T U V W X Y Z

Times New Viking - Natural Resources I Love Mine tab

From the album "Dig Yourself" (2005).

Part 1:
--10-10---5-5------10-10---7-5-|
--10-10---5-5------10-10---7-5-|
--11-11---6-6------11-11---8-6-|
--12-12---7-7------12-12---9-7-|
--12-12---7-7------12-12---9-7-|
--10-10---5-5------10-10---7-5-|

Listen to song for rhythm, throw some muted strokes in there.

Part 2:
-------------------------------------------555-55-5-5-|
-------------------------------------------555-55-5-5-|
-------------------------------------------666-66-6-6-|
-------------------------------------------777-77-7-7-|
-----------5-------------5-------------7---777-77-7-7-|
-3-3-3-3-5-----3-3-3-3-5-----5-5-5-5-7-----555-55-5-5-|
Tap to rate this tab
# A B C D E F G H I J K L M N O P Q R S T U V W X Y Z