Song name
# A B C D E F G H I J K L M N O P Q R S T U V W X Y Z

Times Of Grace - Strength In Numbers tab

Strength In Numbers
Times of Grace
Jesse Leach and Adam Dutkiewicz
Roadrunner Records

Tuning: d A F C G D

Rhythm Guitar

Intro
             One Love      One Truth     One Love   One Truth
|------------------------------------------------------------------|
|------------------------------------------------------------------|
|--2----5-------------------7----9--------5----------7----9--------|
|------------------------------------------------------------------|
|------------------------------------------------------------------|
|------------------------------------------------------------------|

|------------------------------------------------------------------|
|------------------------------------------------------------------|
|------------------------------------------------------------------|
|---------------4-----4--2-----------------------------------------|
|--2------------2-----2--0--5--4-----------------------------------|
|--0------------------------3--2-----------------------------------|

|| ---------------------------------------------------||
||o--------------------------------------------------o||
|| ---------------------------------------------------||
|| ---------------------------------------------------||
||o--2-2-2-2--2-2-2-2--2-2-2-2--2-2-2-2-2-2-2-2-2-2--o|| x4
|| --0-0-0-0--0-0-0-0--0-0-0-0--0-0-0-0-0-0-0-0-0-0---||

Verse

|| ----------------------------------------------------------------|
||o----------------------------------------------------------------|
|| ----------------------------------------------------------------|
|| ----------------------------------------------------------------|
||o----------------------------------------------------------------|
|| --10h12-0-0-0-10h12-0-0-0-10h12-0-0-0-13-10-10-10-10-10-10h12---|

 ------------------------------------------------||
 -----------------------------------------------o||
 ------------------------------------------------||
 ------------------------------------------------||
 -----------------------------------------------o|| x4
 --0-0-0-10h12-0-0-0--8-10-0-7-9-0-5-7-0-3-5-0---||

Fill 1

|------------------------------------------------------------------|
|--5-----5-----1-----1-----1---------------------------------------|
|----5-----5-----2-----2-----2-------------------------------------|
|------3-----3-----3-----3-----3-----------------------------------|
|------------------------------------------------------------------|
|------------------------------------------------------------------|

Verse

|| ----------------------------------------------------------------|
||o----------------------------------------------------------------|
|| ----------------------------------------------------------------|
|| ----------------------------------------------------------------|
||o----------------------------------------------------------------|
|| --10h12-0-0-0-10h12-0-0-0-10h12-0-0-0-13-10-10-10-10-10-10h12---|

 ------------------------------------------------||
 -----------------------------------------------o||
 ------------------------------------------------||
 ------------------------------------------------||
 -----------------------------------------------o|| x2
 --0-0-0-10h12-0-0-0--8-10-0-7-9-0-5-7-0-3-5-0---||

Fill 2

|---------------------------------------------------------------------|
|--1-----1-----1-----1-----1------------------------------------------|
|----0-----0-----2-----2-----2----------------------------------------|
|------3-----3-----3-----3-----3--------------------------------------|
|---------------------------------------------------------------------|
|---------------------------------------------------------------------|

Chorus

|| -------------------------------------------------------------------|
||o-------------------------------------------------------------------|
|| -------------------------------------------------------------------|
|| -------------------------------------------------------------------|
||o--2--2-2-2--2-2-2--2-2-2--2-2-2--2-2-2--2-2-2--2-2-2---------------|
|| --0--0-0-0--0-0-0--0-0-0--0-0-0--0-0-0--0-0-0--0-0-0---------------|

 -------------------------------||
 ------------------------------o||
 -------------------------------||
 -----5---4---5-----9---7---9---||
 ------------------------------o|| x2
 --3----0---0----5----0---0-----||

|| ------------------------------------------------------------------- ||
||o-------------------------------------------------------------------o||
|| ------------------------------------------------------------------- ||
|| ------5---7---5--------9---7---9--------9---7---9---10---9---7---9- ||
||o--3----------------5----------------9------------------------------o|| x2
|| --------0---0---0--------0---0---0--------0---0---0----0---0---0--- ||

Verse

|| ----------------------------------------------------------------|
||o----------------------------------------------------------------|
|| ----------------------------------------------------------------|
|| ----------------------------------------------------------------|
||o----------------------------------------------------------------|
|| --10h12-0-0-0-10h12-0-0-0-10h12-0-0-0-13-10-10-10-10-10-10h12---|

 ------------------------------------------------||
 -----------------------------------------------o||
 ------------------------------------------------||
 ------------------------------------------------||
 -----------------------------------------------o|| x3
 --0-0-0-10h12-0-0-0--8-10-0-7-9-0-5-7-0-3-5-0---||

Fill 3

|--------------------------------3-----3---------------------------|
|--5-----5-----1-----1-----1-------1-----1-----1-----1-----1-------|
|----5-----5-----2-----2-----2-------2-----2-----2-----2-----2-----|
|------3-----3-----3-----3-----3-------------------3-----3-----3---|
|------------------------------------------------------------------|
|------------------------------------------------------------------|

Chorus

|| -------------------------------------------------------------------|
||o-------------------------------------------------------------------|
|| -------------------------------------------------------------------|
|| -------------------------------------------------------------------|
||o--2--2-2-2--2-2-2--2-2-2--2-2-2--2-2-2--2-2-2--2-2-2---------------|
|| --0--0-0-0--0-0-0--0-0-0--0-0-0--0-0-0--0-0-0--0-0-0---------------|

 -------------------------------||
 ------------------------------o||
 -------------------------------||
 -----5---4---5-----9---7---9---||
 ------------------------------o|| x2
 --3----0---0----5----0---0-----||

|| ------------------------------------------------------------------- ||
||o-------------------------------------------------------------------o||
|| ------------------------------------------------------------------- ||
|| ------5---7---5--------9---7---9--------9---7---9---10---9---7---9- ||
||o--3----------------5----------------9------------------------------o|| x2
|| --------0---0---0--------0---0---0--------0---0---0----0---0---0--- ||

Breakdown

|----------------------------------------------------------------|
|----------------------------------------------------------------|
|----------------------------------------------------------------|
|----------------------------------------------------------------|
|--2------------------------------2------------------------------|
|--0------------------------------0------------------------------|

|| ---------------------------------------------------||
||o--------------------------------------------------o||
|| ---------------------------------------------------||
|| ---------------------------------------------------||
||o--2-2-2-2--2-2-2-2--2-2-2-2--2-2-2-2-2-2-2-2-2-2--o|| x2
|| --0-0-0-0--0-0-0-0--0-0-0-0--0-0-0-0-0-0-0-0-0-0---||

Solo Backing

|------------------------------------------------------|
|------------------------------------------------------|
|------------------------------------------------------|
|--5----7--------------5----7--------------------------|
|--3----5----2----5----3----5----2----5----------------|
|------------0----3--------------0----3----------------|

|| ---------------------------------------------------||
||o--------------------------------------------------o||
|| ---------------------------------------------------||
|| ---------------------------------------------------||
||o--2-2-2-2--2-2-2-2--2-2-2-2--2-2-2-2-2-2-2-2-2-2--o|| x4
|| --0-0-0-0--0-0-0-0--0-0-0-0--0-0-0-0-0-0-0-0-0-0---||

Fill 3

|--------------------------------3-----3---------------------------|
|--5-----5-----1-----1-----1-------1-----1-----1-----1-----1-------|
|----5-----5-----2-----2-----2-------2-----2-----2-----2-----2-----|
|------3-----3-----3-----3-----3-------------------3-----3-----3---|
|------------------------------------------------------------------|
|------------------------------------------------------------------|

Chorus

|| ----------------------------------------------------------------|
||o----------------------------------------------------------------|
|| ----------------------------------------------------------------|
|| ----------------------------------------------------------------|
||o--2--2-2-2--2-2-2--2-2-2--2-2-2--2-2-2--2-2-2--2-2-2------------|
|| --0--0-0-0--0-0-0--0-0-0--0-0-0--0-0-0--0-0-0--0-0-0------------|

 -------------------------------||
 ------------------------------o||
 -------------------------------||
 -----5---4---5-----9---7---9---||
 ------------------------------o|| x2
 --3----0---0----5----0---0-----||

|| -------------------------------------------------------------------|
||o-------------------------------------------------------------------|
|| -------------------------------------------------------------------|
|| ------5---7---5--------9---7---9--------9---7---9---10---9---7---9-|
||o--3----------------5----------------9------------------------------| x2
|| --------0---0---0--------0---0---0--------0---0---0----0---0---0---|

Outro

|--------------------------------|
|--------------------------------|
|--------------------------------|
|--------------------------------|
|--2-----------------------------|
|--0-----------------------------|

http://www.roadrunnerrecords.com/artists/TimesofGrace/

TH
Tap to rate this tab
 
# A B C D E F G H I J K L M N O P Q R S T U V W X Y Z