Times Of Grace - Willing tab

"Willing"
by Times of Grace (Hymn of A Broken Man)
Drop D (DADGBe)

Intro (Not sure about this)
e|-0----0------0----0------0----0------0----0----|
B|-0--0---0----0--0---0----0--0---0----0--0---0--|
G|-6--------6--6--------6--4--------4--6--------6|
D|-6-----------6-----------4-----------6---------|
A|-4-----------4-----------2-----------4---------|
D|-----------------------------------------------|

Verse
e|----------------------------------------------------------------------------|
B|----------------------------------------------------------------------------|
G|----------------------------------------------------------------------------|
D|---4---2---1---4---2---1---1---2---4---1---2---4---1---2---4---1---2---4----|
A|-4---4---4---4---4---4---2---2---2---2---2---2---1---1---1---1---1---1------|
D|----------------------------------------------------------------------------|
   .   .   .   .   .   .   .   .   .   .   .   .   .   .   .   .   .   .

e|-----------------------------|
B|-----------------------------|
G|-----------------------------|
D|---4---2---1---6---4---2-----|
A|-0---0---0---2---2---2-------|
D|-----------------------------|
   .   .   .   .   .   .

Pre-chorus
e|--------------------------------------------------------|--------------------|
B|--------------------------------------------------------|--------------------|
G|----------------------------------------------------9---|--------------------|
D|---7---6---------7---6---------7---6---9----7---6-------|--6-6-6--9-9-9------|
A|-0---0---0--7--0---0---0--7--4---4---4----7---7---7-----|--4-4-4--7-7-7------|
D|--------------------------------------------------------|--------------------|
   .   .   .     .   .   .     .   .   .    .   .   .

Chorus
e|-----------------------------------7---------|-0-----0-----------------------------------------|
B|------4-5-7b9r7-5-7b9r7/4----4-5-7---7-5-4---|---4-----4---7b9r7-5-7b9r7/4---4-4-4-5-5-5-5-5-5-|
G|-4h6----------------------4----------------4-|-----4-----4-----------------4-4-4-4-4-4-4-4-4-4-|
D|---------------------------------------------|-------------------------------------------------|
A|---------------------------------------------|-------------------------------------------------|
D|---------------------------------------------|-------------------------------------------------|

Post-Chorus
e|----------------------------------------|-------------------------------|
B|-5-4-5-0------5-4-5-0------5-4-5-0------|--5-7---5-7---5-7---5-7--------|
G|---------2-1----------2-1----------2-1--|------4-----4-----4-----4------|
D|----------------------------------------|-------------------------------|
A|----------------------------------------|-------------------------------|
D|----------------------------------------|-------------------------------|

That's pretty much it, feel free to submit corrections
Tap to rate this tab
 
# A B C D E F G H I J K L M N O P Q R S T U V W X Y Z