Song name
# A B C D E F G H I J K L M N O P Q R S T U V W X Y Z

Times Of Grace - Hymn Of A Broken Man tab

Hymn Of A Broken Man
by Times Of Grace

Music by Adam Dutkiewicz
Lyrics by Jesse Leach and Adam Dutkiewicz


Tuning: Drop D


*Arranged for one guitar*


KEY:

PM--Palm mute

(x)--tied note

h--hammer on

p--pull off

x!--accentuated note

/--slide up

\--slide down

~lyrics~




INTRO

e|---------------------------------------------------------------------|
B|-3--------3-5-3----3--------------3--------3-5-3--3------------------|
G|-2-----3-----------2-----3--------2-----3---------2-----3------------|
D|-0--3--3-----------0--3--3--2-2-2-0--3--3---------0--3--3--2-2-2-0---|
A|-0-----1-----------0-----1--0-0-0-0-----1---------0-----1--0-0-0-0---|
D|-0-----------------0--------0-0-0-0---------------0--------0-0-0-0---|
PM                                                           . . . .


~Fallen. Fell to the depths of your regret. And now theres nothing left, but apathy~
 ------------------------------------------------------|
 ---------3-5-3---------------------3-5-3--------------|
 ------3------------3------------3------------3--------|
 -(0)--3--------0---3--2-2-2-0---3--------0---3--2-2-2-|
 -(0)--1--------0---1--0-0-0-0---1--------0---1--0-0-0-|
 -(0)-----------0------0-0-0-0------------0------0-0-0-|
PM              .      . . . .            .      . . .



VERSE

 |------------------------------------------------------------------------|
 |------------------------------------------------------------------------|
 |------------------------------------------------------------------------|
 |------------------------------------------------------------------------|
 |-----3h5---------------3h5---------------3h5---------------3h5----------|
 |-0-00-----0-000-0--0-00-----0-000-0--0-00-----0-000-0--0-00-----0-000-0-|
PM . ..     . ... .  . ..     . ... .  . ..     . ... .  . ..     . ... .



~Blinded by pride, torn on the inside~
 |------------------------------------------------------------------|
 |------------------------------------------------------------------|
 |------------------------------------------------------------------|
 |------------------------------------------------------------------|
 |-----3h5-----3h5-----3h5--------------7h8-----7h8-----7h8---------|
 |-0-00----0-00----0-00----0-000-0--8-88----8-88----8-88----8-888-8-|
PM . ..    . ..    . ..    . ... .  . ..    . ..    . ..    . ... .



~Count the cost of your arrogance~
  ------------------------------------------------------------------------|
  ------------------------------------------------------------------------|
  ------------------------------------------------------------------------|
  ------------------------------------------------------------------------|
  -----9h10------9h10-----9h10--------------7h8------7h8------7h8---------|
  -9-99-----9-99------9-99-----9-999-9--8-88----8-88-----8-88-----8-888-8-|
PM . ..     . ..      . ..     . ... .  . ..    . ..     . ..     . ... .



~Words pass through deafened ears~
 |------------------------------------------------------------------|
 |------------------------------------------------------------------|
 |------------------------------------------------------------------|
 |------------------------------------------------------------------|
 |-----3h5-----3h5-----3h5--------------7h8-----7h8-----7h8---------|
 |-0-00----0-00----0-00----0-000-0--8-88----8-88----8-88----8-888-8-|
PM . ..    . ..    . ..    . ... .  . ..    . ..    . ..    . ... .



~Now your broken wings mirror your self-regret~
  --------------------------------------------------------------------------|
  --------------------------------------------------------------------------|
  --------------------------------------------------------------------------|
  --------------------------------------------------------------------------|
  -----9h10------9h10-----9h10--------------7h8------7h8------7h8-//pick////|
  -9-99-----9-99------9-99-----9-999-9--8-88----8-88-----8-88-----///slide//|
PM . ..     . ..      . ..     . ... .  . ..    . ..     . ..




CHORUS

~Why do we live so blind? Like a fallen angels eyes~
 |------------------------------------------------------------------------|
 |------------------------------------------------------------------------|
 |------------------------------------------------------------------------|
 |------------------------------------------------------------------------|
 |-555577778888-555577778888-333355557777-333355557777-888877775----------|
 |----------------------------------------------------------------000-000-|
PM                                                                ... ...


  ----------------------------|
  ----------------------------|
  ----------------------------|
  ----------------------------|
  -----888877775--------------|
  -000------------000-000-000-|
PM ...            ... ... ...



~Torn inside. This is the hymn of a broken man~
 |------------------------------------------------------------------------|
 |------------------------------------------------------------------------|
 |------------------------------------------------------------------------|
 |------------------------------------------------------------------------|
 |-555577778888-555577778888-333355557777-333355557777-888877775----------|
 |----------------------------------------------------------------000-000-|
PM                                                                ... ...


  -------------------|
  -------------------|
  -------------------|
  ---------------0---|
  -----888877775-0---|
  -000-----------0---|
PM ...




INTERLUDE


(low distortion)
|-------------------|
|-------------3-5-3-|
|-2--(2)---3--------|
|-----3---(3)-------|
|-------------------|
|-------------------|



VERSE

~Fallen. Cast down from the blessedness~

(high distortion)
|-------------------------------------------|
|-3---------------------3-5-3---------------|
|-2--3--3------------3-------------3--------|
|-0-----3--2-2-2-0---3---------0---3--2-2-2-|
|-0-----1--0-0-0-0---1---------0---1--0-0-0-|
|-0--------0-0-0-0-------------0------0-0-0-|
PM         . . . .             .      . . .



~Now theres nothing left. Nothing but apathy~
 |--------------------------------------------------------------|
 |-------------------------3-5-3--------------------------------|
 |----------------------3------------------------------3--------|
 |----------------------3------------------------------3--2-2-2-|
 |---3h5-3h5---3h5-3h5--1-----------3h5-3h5---3h5-3h5--1--0-0-0-|
 |-00--------00-------------------00--------00------------0-0-0-|
PM ..        ..                   ..        ..




CHORUS

~Why do we live so blind? Like a fallen angels eyes~
 |------------------------------------------------------------------------|
 |------------------------------------------------------------------------|
 |------------------------------------------------------------------------|
 |------------------------------------------------------------------------|
 |-555577778888-555577778888-333355557777-333355557777-888877775----------|
 |----------------------------------------------------------------000-000-|
PM                                                                ... ...


  ------------------------------|
  ------------------------------|
  ------------------------------|
  ------------------------------|
  -----888877775----------------|
  -000------------000-000-000---|
PM ...            ... ... ...



~Torn inside. This is the hymn of a broken man~
 |-------------------------------------------------------------------------|
 |-------------------------------------------------------------------------|
 |-------------------------------------------------------------------------|
 |-------------------------------------------------------------------------|
 |-555577778888-555577778888-333355557777-333355557777-888877775-----------|
 |----------------------------------------------------------------000-000--|
PM                                                                ... ...



  ------------------------------|
  ------------------------------|
  ------------------------------|
  ------------------------------|
  -----888877775----------------|
  -000--------------000-000-000-|
PM ...              ... ... ...



~God save you. God save your soul~
 |-------------------------------------------------------------------------|
 |-------------------------------------------------------------------------|
 |-------------------------------------------------------------------------|
 |-------------------------------------------------------------------------|
 |-555577778888-555577778888-333355557777-333355557777-888877775-----------|
 |----------------------------------------------------------------000-000--|
PM                                                                ... ...


  ------------------------------|
  ------------------------------|
  ------------------------------|
  ------------------------------|
  -----888877775----------------|
  -000------------000-000-000---|
PM ...            ... ... ...




~Torn inside. This is the hymn of a broken man~
 |-------------------------------------------------------------------------|
 |-------------------------------------------------------------------------|
 |-------------------------------------------------------------------------|
 |-------------------------------------------------------------------------|
 |-555577778888-555577778888-333355557777-333355557777-888877775-----------|
 |----------------------------------------------------------------000-000--|
PM                                                                ... ...


  --------------------------------|
  --------------------------------|
  ----------------7/--------------|
  ----------------7/--------------|
  -----888877775--5/--------------|
  -000----------------------------|
PM ...




BRIDGE

Clean

~If you could only see the truth, For pride has blinded you~
|---------1!-------------1!------------1!--------------3!-------|
|-----3------3-------3------3-------------3--------3-----3------|
|---3---3------3---3---3------3----3---------2---0---0-----0----|
|--------------------------------0---0--------------------------|
|-1--------------1-----------------------------2----------------|
|-------------------------------0-------------------------------|


~Feel with your heart. Disregard has killed you-Once again~
---------1!-------------1!------------1!--------------3!-------------1!---|
-----3------3-------3------3-------------3--------3-----3-------3------3--|
---3---3------3---3---3------3----3---------2---0---0-----0---3---3-----3-|
--------------------------------0---0-------------------------------------|
-1--------------1-----------------------------2-------------1-------------|
-------------------------------0------------------------------------------|


|---------------------------|
|---------------------------|
|---------------------------|
|---------------------------|
|-/////////Pick////////////-|
|-///////////Slide////////--|




EXTENDED CHORUS


~Why do we live so blind? Like a fallen angels eyes~
 |-------------------------------------------------------------------------|
 |-------------------------------------------------------------------------|
 |-------------------------------------------------------------------------|
 |-------------------------------------------------------------------------|
 |-555577778888-555577778888-333355557777-333355557777-888877775-----------|
 |----------------------------------------------------------------000-000--|
PM                                                                ... ...


  -----------------------------|
  -----------------------------|
  -----------------------------|
  -----------------------------|
  -----888877775---------------|
  -000------------000-000-000--|
PM ...            ... ... ...



~Cast aside. This is the hymn of a broken man~
 |-------------------------------------------------------------------------|
 |-------------------------------------------------------------------------|
 |-------------------------------------------------------------------------|
 |-------------------------------------------------------------------------|
 |-555577778888-555577778888-333355557777-333355557777-888877775-----------|
 |----------------------------------------------------------------000-000--|
PM                                                                ... ...


  -----------------------------|
  -----------------------------|
  -----------------------------|
  -----------------------------|
  -----888877775---------------|
  -000------------000-000-000--|
PM ...            ... ... ...



~Why do we live so blind?~
|-----------------------------------------------------------------------------|
|-10-----10-----10-----10-----8----8----8----8----10-----10-----10-----10-----|
|---10-----10-----10-----10----9----9----9----9-----10-----10-----10-----10---|
|-----12-----12-----12-----12---10---10---10---10-----12-----12-----12-----12-|
|-----------------------------------------------------------------------------|
|-----------------------------------------------------------------------------|



~This is the hymn of a broken man~
-8-----8-----8-----8-----|
----10----10----10----10-|
--10----10----10----10---|
-------------------------|
-------------------------|
-------------------------|



~Why do we live so blind?~
|-----------------------------------------------------------------------------|
|-10-----10-----10-----10-----8----8----8----8----10-----10-----10-----10-----|
|---10-----10-----10-----10----9----9----9----9-----10-----10-----10-----10---|
|-----12-----12-----12-----12---10---10---10---10-----12-----12-----12-----12-|
|-----------------------------------------------------------------------------|
|-----------------------------------------------------------------------------|



~This is the hymn of a broken-
-8-----8-----8-----8-----|
----10----10----10----10-|
--10----10----10----10---|
-------------------------|
-------------------------|
-------------------------|



END

man. God save your soul~

*(hold and slide up)           **(hold and slide down)
|----------------------------------------------------------------|
|----------------------------------------------------------------|
|-*8/--------------*6/--------------**3\-------------------------|
|----------------------------------------------------------------|
|-*6/--------------*4/--------------**1\-------------------------|
|-----000-000-000------000-000-000-------000-000-000-000-000-000-|
PM    ... ... ...      ... ... ...       ... ... ... ... ... ...


----------------|
----------------|
----------------|
----------------|
-4p0---2--------|
-----3---3-1----|



~God save us all~
----------------------------------------------------------------------------|
----------------------------------------------------------------------------|
--*8/--------------*6/--------------**3\------------------------------------|
----------------------------------------------------------------------------|
--*6/--------------*4/--------------**1\------------------------------------|
------000-000-000------000-000-000-------000-000-000-000-000-000-000-000-000|
PM    ... ... ...      ... ... ...       ... ... ... ... ... ... ... ... ...
Tap to rate this tab
 
# A B C D E F G H I J K L M N O P Q R S T U V W X Y Z