Times Of Grace - Hope Remains tab

"Hope Remains"
by Times of Grace
the Hymn of a Broken Man (2011)
Drop D (Dadgbe)

* - palm mute
h - hammer on
p - pull off
s - slide
b - bend
fb - full bend
hb - half bend


Intro
Guitar 1 (repeat throughout)
e-------------------------------------------|
b-------------------------------------------|
g---3-3-3-3---5-5-5-5---3-3-3-3---2-2-2-2---|
d---5-5-5-5---3-3-3-3---5-5-5-5---3-3-3-3---|
a-------------------------------------------|
d-------------------------------------------|

Guitar 2 (comes in later)
e-----------------------------------------------------------------------|
b---4---4---4---4----6---6---6---6----3---3---3---3----6---6---6---6----|
g-----3---3---3---3----5---5---5---5----0---0---0---0----5---5---5---5--|
d-----------------------------------------------------------------------|
a-----------------------------------------------------------------------|
d-----------------------------------------------------------------------|


Verse Part 1 ("Crushed, by the weight of your sorrow...")
Both Guitars
e---------------------------------------------------------------|
b---------------------------------------------------------------|
g---------------------------------------------------------------|
d--------------------------------------------------10-12-10-----|
a--------------8---7---7--5---------------------------------12--|
d--000-0-000-0---0---0----------000-0-000-0--10-12--------------|
   *** * *** *   *   *          *** * *** *

e--------------------------------------------------------------|
b--------------------------------------------------------------|
g--------------------------------------------------------------|
d--------------------------------------------------------------|
a--------------8---7---7--5------------------------10-12-10-8--|
d--000-0-000-0---0---0----------000-0-000-0---8-10-------------|
   *** * *** *   *   *          *** * *** *

on final measure before pre-chorus, play this (you'll hear it in the song)
e----------|
b----------|
g----------|
d--777777--|
a--777777--|
d--777777--|


Pre-Chorus ("But it's hidden from your face...")
Both Guitars
e---------------------------------------------------|
b---------------------------------------------------|
g---------------------------------------------------|
d---------7-----------------------------------------|
a---------5--bend and release chord (play x3)-then--|
d--0-0-0--------------------------------------------|
   * * *
Guitar 1                Guitar 2
e---------------------- ---------------------|
b---------------------- ---------------------|
g---------------------- ---5-------4---------|
d---7--------6--------- ------7-------6------|
a------8--5-----7--4--- ---------8-------7---|
d---------------------- ---------------------|


Verse Part 2 ("Seek and you'll find the path you should follow...")
Guitar 1 repeats verse part 1
Guitar 2 plays this variation
e----------------------------------------------------------------|
b----------------------------------------------------------------|
g----------------------------------------------------------------|
d--------------------------------------------------14-15-14------|
a-------------12---10---10--8-------------------------------15---|
d--000-0-000-0---0----0----------000-0-000-0--14-15--------------|
   *** * *** *   *    *          *** * *** *
e----------------------------------------------------------------|
b----------------------------------------------------------------|
g----------------------------------------------------------------|
d----------------------------------------------------------------|
a-------------12---10---10--8-----------------------13-15-13-12--|
d--000-0-000-0---0----0----------000-0-000-0--12-14--------------|
   *** * *** *   *   *           *** * *** *


Repeat Pre-Chorus ("And it's all within your spirit...")


Chorus Part 1 ("Hold on to faith, hold on to love
Guitar 1 (notes are tremelo picked, played for equal time)
e---------------------------------------------------------------|
b---------------------------------------------------------------|
g---------------------------------------------------------------|
d---------------------------------------------------------------|
a--66666666666666-88888888888888-10101010101010-88888888888888--|
d---------------------------------------------------------------|

Guitar 2
e---------------------------------------------------------------|
b---------------------------------------------------------------|
g--33333333333333-22222222222222-33333333333333-22222222222222--|
d---------------------------------------------------------------|
a---------------------------------------------------------------|
d---------------------------------------------------------------|


Chorus Part 2 ("We are the breath of life")
Guitar 1
e------------------------------------------------------|
b------------------------------------------------------|
g--------------------------------------10-8-7----------|
d-------8--7-------7--8--10--8b--8-7-7--------10-8-7---|
a---6b-------8-8b--------------------------------------|
d------------------------------------------------------|

Guitar 2 (listen for timing)
e-----------------------------------|
b-----------------------------------|
g-----------------------------------|
d---1---3---5---3---1---3---5---3---|
a---1---3---5---3---1---3---5---3---|
d---1---3---5---3---1---3---5---3---|


Post-Chorus ("In these times of grace")
e-----------------------------------------------|
b------5h6p5p0----------------------------------|
g-------------------------4h5p4p0---------------|
d--------------(x4)---------------(x3)----------|
a---------------------0-0-----------------------|
d--0-0---------------------------------/5-3-2---|
   * *                * *
e----------------------------------------------------------|
b----------------------------------------------------------|
g------0h2p0-----------------------------------------------|
d------------3---(x4)------7h8p7p0---(x2)-----8-7-5-7-5-3--|
a---------------------------------------------8-7-5-7-5-3--|
d--3-3-----------------5-5--------------------8-7-5-7-5-3--|
   * *                 * *


Solo
e-----------------------------------------------------------------------|
b---------------------------------10*-----------------------------------|
g--/7--7--9--10--7--7fb-7h9p7s5-------9-10-----12hb-10-12--14hb-12-14---|
d-----7--7--7--7---------------------------10---------------------------|
a-----------------------------------------------------------------------|
d-----------------------------------------------------------------------|

       (x4)                 (x4)
e--15-17-13-17--17-|--13-15-12-15--15--|--15fb-12-13--20fb--|
b-------------15---|-------------13----|--------------------|
g------------------|-------------------|--------------------|
d------------------|-------------------|--------------------|
a------------------|-------------------|--------------------|
d------------------|-------------------|--------------------|

e-17-18-15-17-13-15-13-|-------------------------------17-17fb-18-20fb-20fb-|
b-----------------------|-------------------171717181818--------------------|
g-----------------------|-131313151515171717--------------------------------|
d-----------------------|---------------------------------------------------|
a-----------------------|---------------------------------------------------|
d-----------------------|---------------------------------------------------|


Repeat Verse Part 1

Repeat Chorus

Repeat Intro until fade out
Tap to rate this tab
 
# A B C D E F G H I J K L M N O P Q R S T U V W X Y Z