Song name
# A B C D E F G H I J K L M N O P Q R S T U V W X Y Z

Times Of Grace - In The Arms Of Mercy tab

Times of Grace
"In the Arms of Mercy"
The Hymn of a Broken Man (2011)

Standard Tuning: EADGBe

This is an instrumental off of HOABM. I think it's pretty accurate although some 
parts are just improvisation (I did my best to tab it out). 
Also, you will have to listen for the strumming pattern in Part 3. This took me a 
while to figure out so please rate and comment. Thanks

() - ghost note
/ - slide up
\ - slide down
p - pull off

Part 1 (0:02-0:34)
e--2-------0-------------------------|\                                    
b----3-------3------3-------2--------| \                                  
g------2-------2------2-------2---2--|  \                                 
d-(0)----0-------0------0-------0----|   \                               
a-------------------------0----------|    \                              
e------------------------------------|     \                            
                                           (x3)
e------------------------------------|     /                             
b--------2/3\2-(2)-------2---3-------|    /                              
g------2-----------2---2---0---2-----|   /                               
d----0---------------0---------------|  /                                   
a------------------------------------| /                                 
e--3---------------------------------|/                                  


On the fourth time, play this:
e--2-------0-------------------------|                                    
b----3-------3------3-------2--------|                                   
g------2-------2------2-------2---2--|                                   
d-(0)----0-------0------0-------0----|                                  
a-------------------------0----------|                                  
e------------------------------------|                                 
                                           
e------------------------------------|                                  
b--------2/3\2-----------------------|                                 
g------2-------2---------------------|                                  
d----0-----------0-------------------|                                     
a------------------------------------|                                 
e--3---------------------------------|                                  


Part 2 (0:35-1:04)
e------------------------------------|                                  
b--------2/3\2-(2)-------2---3-------|                                  
g------2-----------2---2---0---2-----|                                  
d----0---------------0---------------|                                     
a------------------------------------|                                  
e--3---------------------------------|  

e--2-------0-------------------------|                                    
b----3-------3-----3\2------3\2------|                                  
g------2-------2-------2--------2----|                                   
d-(0)----0-------0--------0-------0--|                                  
a--------------------------------(0)-|                                 
e------------------------------------|                                 
                                           
e------------------------------------|                               
b--------2/3\2-(2)-------2---3-------|                                  
g------2-----------2---2---0---2-----|                                  
d----0---------------0---------------|                                     
a------------------------------------|                                  
e--3---------------------------------| 

                                 
                                           
e------------------------------------|\
b-----------------3-------3----------| \
g------2--------2-------2-------2----|  \
d----0---0----0-------0-------0---0--|   \ 
a--2--------2-------2-------2--------|    \
e------------------------------------|     \
                                            (x2)
e------------------------------------|     /
b-----------------3-------3----------|    /
g------2--------2-------2-------2----|   /
d----0---0----0-------0-------0---0--|  /
a------------------------------------| /
e--3--------3-------3-------3--------|/


Part 3 (1:05-1:54)   
e--2--2--2--2-2---5-5-5---0-0-0--0----0-0-0-0-0-0-0-0---|\
b--3--3--3--3-3---3-3-3---2-2-2--2/3--3-3-3-3-3-3-3-3---| \
g--2--2--2--2-2---2-2-2---2-2-2--2----0-0-0-0-0-0-0-0---|  \
d--0--0--0--0-0---0-0-0---0-0-0--0----0-0-0-0-0-0-0-0---|   \ 
a-------------------------------------2-2-2-2-2-2-2-2---|    \ 
e-------------------------------------3-3-3-3-3-3-3-3---|     \
                                                               (x2)
e-------------0-0-0-0--0----0-0-0-0-0-0-0-0-------------|     /
b--3-3-3-3-3--2-2-2-2--2/3--3-3-3-3-3-3-3-3-------------|    /
g--2-2-2-2-2--2-2-2-2--2----0-0-0-0-0-0-0-0-------------|   / 
d--0-0-0-0-0--0-0-0-0--0----0-0-0-0-0-0-0-0-------------|  /
a--2-2-2-2-2----------------2-2-2-2-2-2-2-2-------------| /
e---------------------------3-3-3-3-3-3-3-3-------------|/


e--------------|
b---3p2--------|
g-------4------|  
d----------5---| (x4)
a--------------|
e--------------|
Tap to rate this tab
# A B C D E F G H I J K L M N O P Q R S T U V W X Y Z