Song name
# A B C D E F G H I J K L M N O P Q R S T U V W X Y Z

Times Of Grace - The Forgotten One tab

-------------------------------------------------------------------------------
                             The Forgotten One - Times Of Grace
-------------------------------------------------------------------------------
Tabbed by: mTmtremonti
Email: mTm_zero95@hotmail.com

Band:   Times Of Grace
Song:   The Forgotten One
Album:  The Hymn Of A Broken Man
Track:  9/13

Guitar 1 - Acoustic (D,A,D,G,B,E)
Guitar 2 - Acoustic (D,A,D,G,B,E)
Guitar 3 - Electric (D,A,D,G,B,E)


Although I listed this song as having 3 guitars, it can just as easily be played
using 2 acoustic guitars: One for rythm, and the other can act as the 3rd guitar.
Please note that this is my first tab, and I would appreciate any feedback,
be it corrections, additions, or any form of criticism. The song is rather easy to
play, but the solo, though short, may challenge some novices. Good luck!

Tuning: Drop D

Intro/Solo Rythm:

Guitar 1
e|-------------------0----0----0---------------------3--3--------------------|-|
B|-------------------3----3----3---------------------3--3----5---5-5-5-------| |
G|-------------------2----2----2---------------------5--5----5---5-5-5-------| |
D|--3p0--------------0----0----0----3p0--------------5--5----5---5-5-5-------| |
A|------0-3b-0--------------------------0-3b-0-------3--3----2/3-3-3-3p0-----| |
D|------------3b-0~----------------------------3b-0~---------------------3---| |
                                                                               |
Guitar 3 (clean, at low volume)                                                |
e|-------------------0----0----0---------------------3~----------------------| |
B|-------------------3----3----3---------------------3~----------------------| |
G|-------------------2----2----2---------------------5~----------------------| |
D|-------------------0----0----0---------------------5~----------------------| |
A|---------------------------------------------------3~----------------------| |
D|---------------------------------------------------------------------------|_|

Solo:
Guitar 2 (Guitars 1 and 3 continue intro)
e|---------------------------------------------------------------------------|
B|---------------------------6p5--6p5------5-6-8-8/10~-----------------------|
G|---------------------7-5h7~---7~---7~-5-7----------------------------------|
D|--3p0------------5h7-------------------------------------------------------|
A|------0-3b-0---------------------------------------------------------------|
D|------------3b-0~----------------------------------------------------------|

e|-12-13-10-12---10----------------------------------------------------------|
B|-------------13--10-13---------------13------------------------------------|
G|----------------------10-12-10-12/14--14\12~-10h12h10\9~9h10p9\5~5/9~7p5-7~|
D|---------------------------------------------------------------------------|
A|---------------------------------------------------------------------------|
D|---------------------------------------------------------------------------|



1st Verse:

Guitar 1
 e|-------------------0----0-0---0-------------------3--3---------------------|-|
 B|-------------------3----3--3--3-------------------3--3----5---5-5-5--------| |
 G|-------------------2----2---2-2-------------------5--5-55-5---5-5-5--------| |
 D|--3p0--------------0----0-----0--3p0--------------5--5-55-5---5-5-5--------| |
 A|------0-3b-0-------------------------0-3b-0-------3--3-33-2/3-3-3-3p0------| |
 D|------------3b-0~--------------------------3b-0~-----------------------3~--| |
                                                                                |
 Guitar 2                                                                       |
 e|-------------------0----0----0---------------------3--3--------------------| |
 B|-------------------3----3----3---------------------3--3----5---5-5-5-------| |
 G|(7~~~~~~~~~~~~~)---2----2----2---------------------5--5----5---5-5-5-------| |
 D|-------------------0----0----0----3p0--------------5--5----5---5-5-5-------| |
 A|--------------------------------------0-3b-0-------3--3----2/3-3-3-3p0-----| |
 D|---------------------------------------------3b-0~---------------------3---| |
                                                                                |
 Guitar 3 (clean, at low volume)                                                |
 e|-------------------0----0----0---------------------3~----------------------| |
 B|-------------------3----3----3---------------------3~----------------------| |
 G|-------------------2----2----2---------------------5~----------------------| |
 D|-------------------0----0----0---------------------5~----------------------| |
 A|---------------------------------------------------3~----------------------| |
 D|---------------------------------------------------------------------------|-|


Guitar 1
 e|-------------------0----0-0---0-------------------3--3---------------------|-|
 B|-------------------3----3--3--3-------------------3--3----5---5-5-5--------| |
 G|-------------------2----2---2-2-------------------5--5-55-5---5-5-5--------| |
 D|--3p0--------------0----0-----0--3p0--------------5--5-55-5---5-5-5--------| |
 A|------0-3b-0-------------------------0-3b-0-------3--3-33-2/3-3-3-3p0------| |
 D|------------3b-0~--------------------------3b-0~-----------------------3~--| |
                                                                                |
 Guitar 2                                                                       |
 e|-------------------0----0-0---0-------------------3--3---------------------| |
 B|-------------------3----3--3--3-------------------3--3----5---5-5-5--------| |
 G|-------------------2----2---2-2-------------------5--5-55-5---5-5-5--------| |
 D|--3p0--------------0----0-----0--3p0--------------5--5-55-5---5-5-5--------| |
 A|------0-3b-0-------------------------0-3b-0-------3--3-33-2/3-3-3-3p0------| |
 D|------------3b-0~--------------------------3b-0~-----------------------3~--| |
                                                                                |
                                                                                |
 Guitar 3 (clean, at low volume)                                                |
 e|-------------------0----0----0---------------------3~----------------------| |
 B|-------------------3----3----3---------------------3~----------------------| |
 G|-------------------2----2----2---------------------5~----------------------| |
 D|-------------------0----0----0---------------------5~----------------------| |
 A|---------------------------------------------------3~----------------------| |
 D|---------------------------------------------------------------------------|-|


Pre-Chorus:

Guitars 1 and 2
e|--x-x-x-x-x-x-x-x--x-x-x-x-x-x-x-x--x--x--x--x--x--x--x--x-----------------|
B|--6-6-6-6-6-6-6-6--8-8-8-8-8-8-8-8--10-10-10-10-10-10-10-10----------------|
G|--7-7-7-7-7-7-7-7--9-9-9-9-9-9-9-9--10-10-10-10-10-10-10-10----------------|
D|--x-x-x-x-x-x-x-x--x-x-x-x-x-x-x-x--x--x--x--x--x--x--x--x-----------------|
A|--5-5-5-5-5-5-5-5--7-7-7-7-7-7-7-7--8--8--8--8--8--8--8--8-----------------|
D|--x-x-x-x-x-x-x-x--x-x-x-x-x-x-x-x--x--x--x--x--x--x--x--x-----------------|

e|--x--x--x--x--x--x--x--x---------------------------------------------------|
B|--11-11-11-11-11-11-11-11--------------------------------------------------|
G|--12-12-12-12-12-12-12-12--------------------------------------------------|
D|--x--x--x--x--x--x--x--x---------------------------------------------------|
A|--10-10-10-10-10-10-10-10--------------------------------------------------|
D|--x--x--x--x--x--x--x--x---------------------------------------------------|


Chorus:

Guitars 1 and 2
e|---------------------------------------------------------------------------|
B|---------------------------------------------------------------------------|
G|--9/10-10-10--x--3--3--33-3--3--33--3-5-5-5-5------------------------------|
D|--x/x--x--x---x--3--3--33-3--3--33--3-5-5-5-5-0----------------------------|
A|--7/8--8--8---x--1--1--11-1--1--11--1-3-3-3-3-0----------------------------|
D|--x-------------------------------------------0----------------------------|

e|---------------------------------------------------------------------------|
B|---------------------------------------------------------------------------|
G|--9/10-10-10--x--3--3---33---5-55--7-7-7-7---------------------------------|
D|--x/x--x--x---x--3--3---33---3-33--5-5-5-5-0-------------------------------|
A|--7/8--8--8---x--1--1---11---3-33--5-5-5-5-0-------------------------------|
D|--x--------------------------3-33--5-5-5-5-0-------------------------------|

e|---------------------------------------------------------------------------|
B|---------------------------------------------------------------------------|
G|--9/10-10-10--x--3--3--33-3--3--33--3-5-5-5-5------------------------------|
D|--x/x--x--x---x--3--3--33-3--3--33--3-5-5-5-5-0----------------------------|
A|--7/8--8--8---x--1--1--11-1--1--11--1-3-3-3-3-0----------------------------|
D|--x-------------------------------------------0----------------------------|

e|---------------------------------------------------------------------------|
B|---------------------------------------------------------------------------|
G|--9/10-10-10---x-3--3--33----5----7----------------------------------------|
D|--x/x--x--x----x-3--3--33----3----5----------------------------------------|
A|--7/8--8--8----x-1--1--11----3----5----------------------------------------|
D|-----------------------------3----5----------------------------------------|


2nd Verse:

Guitar 1
 e|-------------------0----0-0---0-------------------3--3---------------------|-|
 B|-------------------3----3--3--3-------------------3--3----5---5-5-5--------| |
 G|-------------------2----2---2-2-------------------5--5-55-5---5-5-5--------| |
 D|--3p0--------------0----0-----0--3p0--------------5--5-55-5---5-5-5--------| |
 A|------0-3b-0-------------------------0-3b-0-------3--3-33-2/3-3-3-3p0------| |
 D|------------3b-0~--------------------------3b-0~-----------------------3~--| |
                                                                                |
 Guitar 2                                                                       |
 e|-------------------0----0-0---0-------------------3--3---------------------| |
 B|-------------------3----3--3--3-------------------3--3----5---5-5-5--------| |
 G|-------------------2----2---2-2-------------------5--5-55-5---5-5-5--------| |
 D|--3p0--------------0----0-----0--3p0--------------5--5-55-5---5-5-5--------| |
 A|------0-3b-0-------------------------0-3b-0-------3--3-33-2/3-3-3-3p0------| |
 D|------------3b-0~--------------------------3b-0~-----------------------3~--| |
                                                                                |
 Guitar 3 (clean, at low volume)                                                |
 e|-------------------0----0----0---------------------3~----------------------| |
 B|-------------------3----3----3---------------------3~----------------------| |
 G|-------------------2----2----2---------------------5~----------------------| |
 D|-------------------0----0----0---------------------5~----------------------| |
 A|---------------------------------------------------3~----------------------| |
 D|---------------------------------------------------------------------------|-|


Guitar 1
 e|-------------------0----0-0---0-------------------3--3---------------------|-|
 B|-------------------3----3--3--3-------------------3--3----5---5-5-5--------| |
 G|-------------------2----2---2-2-------------------5--5-55-5---5-5-5--------| |
 D|--3p0--------------0----0-----0--3p0--------------5--5-55-5---5-5-5--------| |
 A|------0-3b-0-------------------------0-3b-0-------3--3-33-2/3-3-3-3p0------| |
 D|------------3b-0~--------------------------3b-0~-----------------------3~--| |
                                                                                |
 Guitar 2                                                                       |
 e|-------------------0----0-0---0-------------------3--3---------------------| |
 B|-------------------3----3--3--3-------------------3--3----5---5-5-5--------| |
 G|-------------------2----2---2-2-------------------5--5-55-5---5-5-5--------| |
 D|--3p0--------------0----0-----0--3p0--------------5--5-55-5---5-5-5--------| |
 A|------0-3b-0-------------------------0-3b-0-------3--3-33-2/3-3-3-3p0------| |
 D|------------3b-0~--------------------------3b-0~-----------------------3~--| |
                                                                                |
                                                                                |
 Guitar 3 (clean, at low volume)                                                |
 e|-------------------0----0----0---------------------3~----------------------| |
 B|-------------------3----3----3---------------------3~----------------------| |
 G|-------------------2----2----2---------------------5~----------------------| |
 D|-------------------0----0----0---------------------5~----------------------| |
 A|---------------------------------------------------3~----------------------| |
 D|---------------------------------------------------------------------------|-|



Pre-Chorus:  X2

Guitars 1 and 2
e|--x-x-x-x-x-x-x-x--x-x-x-x-x-x-x-x--x--x--x--x--x--x--x--x-----------------|
B|--6-6-6-6-6-6-6-6--8-8-8-8-8-8-8-8--10-10-10-10-10-10-10-10----------------|
G|--7-7-7-7-7-7-7-7--9-9-9-9-9-9-9-9--10-10-10-10-10-10-10-10----------------|
D|--x-x-x-x-x-x-x-x--x-x-x-x-x-x-x-x--x--x--x--x--x--x--x--x-----------------|
A|--5-5-5-5-5-5-5-5--7-7-7-7-7-7-7-7--8--8--8--8--8--8--8--8-----------------|
D|--x-x-x-x-x-x-x-x--x-x-x-x-x-x-x-x--x--x--x--x--x--x--x--x-----------------|

e|--x--x--x--x--x--x--x--x---------------------------------------------------|
B|--11-11-11-11-11-11-11-11--------------------------------------------------|
G|--12-12-12-12-12-12-12-12--------------------------------------------------|
D|--x--x--x--x--x--x--x--x---------------------------------------------------|
A|--10-10-10-10-10-10-10-10--------------------------------------------------|
D|--x--x--x--x--x--x--x--x---------------------------------------------------|


Chorus:

Guitars 1 and 2
e|---------------------------------------------------------------------------|
B|---------------------------------------------------------------------------|
G|--9/10-10-10--x--3--3--33-3--3--33--3-5-5-5-5------------------------------|
D|--x/x--x--x---x--3--3--33-3--3--33--3-5-5-5-5-0----------------------------|
A|--7/8--8--8---x--1--1--11-1--1--11--1-3-3-3-3-0----------------------------|
D|--x-------------------------------------------0----------------------------|

e|---------------------------------------------------------------------------|
B|---------------------------------------------------------------------------|
G|--9/10-10-10--x--3--3---33---5-55--7-7-7-7---------------------------------|
D|--x/x--x--x---x--3--3---33---3-33--5-5-5-5-0-------------------------------|
A|--7/8--8--8---x--1--1---11---3-33--5-5-5-5-0-------------------------------|
D|--x--------------------------3-33--5-5-5-5-0-------------------------------|

e|---------------------------------------------------------------------------|
B|---------------------------------------------------------------------------|
G|--9/10-10-10--x--3--3--33-3--3--33--3-5-5-5-5------------------------------|
D|--x/x--x--x---x--3--3--33-3--3--33--3-5-5-5-5-0----------------------------|
A|--7/8--8--8---x--1--1--11-1--1--11--1-3-3-3-3-0----------------------------|
D|--x-------------------------------------------0----------------------------|

e|---------------------------------------------------------------------------|
B|---------------------------------------------------------------------------|
G|--9/10-10-10---x-3--3--33----5----7----------------------------------------|
D|--x/x--x--x----x-3--3--33----3----5----------------------------------------|
A|--7/8--8--8----x-1--1--11----3----5----------------------------------------|
D|-----------------------------3----5----------------------------------------|



Bridge: Guitar 2

e|---------------------------------------------------------------------------|
B|---------------------------------------------------------------------------|
G|---------------------------------------------------------------------------|
D|----3-5brp3-5-3------------------------------------------------------------|
A|---------------5------5-------3--------------------------------------------|
D|------------------3-5---5-5-3---3~-----------------------------------------|

e|---------------------------------------------------------------------------|
B|---------------------------------------------------------------------------|
G|---------------------------------------------------------------------------|
D|----3-5brp3-5-3------------------------------------------------------------|
A|---------------5------5-------3-3h5~---------------------------------------|
D|------------------3-5---5-5-3----------------------------------------------|

e|---------------------------------------------------------------------------|
B|---------------------------------------------------------------------------|
G|-----------------------------------------0h5h7~----------------------------|
D|-----3-5brp3-5-3--------------0h3h5-0h5h7----------------------------------|
A|----------------5--------0h3h5---------------------------------------------|
D|-----------------3--0h3h5--------------------------------------------------|

e|---------------------------------------------------------------------------|
B|---------------------------------------------------------------------------|
G|---------------------------------------------------------------------------|
D|----3-5brp3-5-3------------------------------------------------------------|
A|---------------5------5-------3--------------------------------------------|
D|------------------3-5---5-5-3---3-3~---------------------------------------|

e|---------------------------------------------------------------------------|
B|---------------------------------------------------------------------------|
G|---------------------------------------------------------------------------|
D|----3-5brp3-5-3------------------------------------------------------------|
A|---------------5------5-------3--------------------------------------------|
D|------------------3-5---5-5-3---3-3~---------------------------------------|

Break: Guitar 1,2

e|--1----1-1-1----1-1-1---1-1-1--1-1--3--3-3-3--3-3--3-3-3-3-3---------------|
B|--1----1-1-1----1-1-1---1-1-1--1-1--3--3-3-3--3-3--3-3-3-3-3---------------|
G|--3----3-3-3----3-3-3---3-3-3--3-3--5--5-5-5--5-5--5-5-5-5-5---------------|
D|--3----3-3-3----3-3-3---3-3-3--3-3--5--5-5-5--5-5--5-5-5-5-5---------------|
A|--1----1-1-1----1-1-1---1-1-1--1-1--3--3-3-3--3-3--3-3-3-3-3---------------|
D|---------------------------------------------------------------------------|



Last Chorus:


Guitars 1 and 2
e|---------------------------------------------------------------------------|-|
B|---------------------------------------------------------------------------| |
G|--9/10-10-10--x--3--3--33-3--3--33--3-5-5-5-5------------------------------| |
D|--x/x--x--x---x--3--3--33-3--3--33--3-5-5-5-5-0----------------------------| |
A|--7/8--8--8---x--1--1--11-1--1--11--1-3-3-3-3-0----------------------------| |
D|--x-------------------------------------------0----------------------------| |
                                                                               |
Guitar 3                                                                       |
e|-----3--(3~~~~~~~~~~~~~~~)-------------------------------------------------| |
B|--6---6-(6~~~~~~~~~~~~~~~)-------------------------------------------------| |
G|---5----(5~~~~~~~~~~~~~~~)-------------------------------------------------| |
D|---------------------------------------------------------------------------| |
A|---------------------------------------------------------------------------| |
D|---------------------------------------------------------------------------|_|
                                                                        X2

Guitars 1 and 2
e|---------------------------------------------------------------------------|-|
B|---------------------------------------------------------------------------| |
G|--9/10-10-10--x--3--3---33---5-55--7-7-7-7---------------------------------| |
D|--x/x--x--x---x--3--3---33---3-33--5-5-5-5-0-------------------------------| |
A|--7/8--8--8---x--1--1---11---3-33--5-5-5-5-0-------------------------------| |
D|--x--------------------------3-33--5-5-5-5-0-------------------------------| |
                                                                               |
Guitar 3                                                                       |
e|-----3--(3~~~~~~~~~~~~~~~)-------------------------------------------------| |
B|--6---6-(6~~~~~~~~~~~~~~~)-------------------------------------------------| |
G|---5----(5~~~~~~~~~~~~~~~)-------------------------------------------------| |
D|---------------------------------------------------------------------------| |
A|---------------------------------------------------------------------------| |
D|---------------------------------------------------------------------------|-|


Guitars 1 and 2
e|---------------------------------------------------------------------------|-|
B|---------------------------------------------------------------------------| |
G|--9/10-10-10--x--3--3--33-3--3--33--3-5-5-5-5------------------------------| |
D|--x/x--x--x---x--3--3--33-3--3--33--3-5-5-5-5-0----------------------------| |
A|--7/8--8--8---x--1--1--11-1--1--11--1-3-3-3-3-0----------------------------| |
D|--x-------------------------------------------0----------------------------| |
                                                                               |
Guitar 3                                                                       |
e|-----3--(3~~~~~~~~~~~~~~~)-------------------------------------------------| |
B|--6---6-(6~~~~~~~~~~~~~~~)-------------------------------------------------| |
G|---5----(5~~~~~~~~~~~~~~~)-------------------------------------------------| |
D|---------------------------------------------------------------------------| |
A|---------------------------------------------------------------------------| |
D|---------------------------------------------------------------------------|_|
                                                                        X2



Guitars 1 and 2
e|---------------------------------------------------------------------------|-|
B|---------------------------------------------------------------------------| |
G|--9/10-10-10---x-3--3--33----5----7----------------------------------------| |
D|--x/x--x--x----x-3--3--33----3----5----------------------------------------| |
A|--7/8--8--8----x-1--1--11----3----5----------------------------------------| |
D|-----------------------------3----5----------------------------------------| |
                                                                               |
Guitar 3                                                                       |
e|-----3--(3~~~~~~~~~~~~~~~)-------------------------------------------------| |
B|--6---6-(6~~~~~~~~~~~~~~~)-------------------------------------------------| |
G|---5----(5~~~~~~~~~~~~~~~)-------------------------------------------------| |
D|---------------------------------------------------------------------------| |
A|---------------------------------------------------------------------------| |
D|---------------------------------------------------------------------------|_|


End

Guitar 1
e|-------------------0-------------------------------------------------------|
B|-------------------3-------------------------------------------------------|
G|-------------------2-------------------------------------------------------|
D|--3p0--------------0-------------------------------------------------------|
A|------0-3b-0---------------------------------------------------------------|
D|------------3b-0~----------------------------------------------------------|

Guitar 2
e|-------------------0-------------------------------------------------------|
B|-------------------3-------------------------------------------------------|
G|-------------------2-------------------------------------------------------|
D|-------------------0-------------------------------------------------------|
A|---------------------------------------------------------------------------|
D|----------------~----------------------------------------------------------|

Guitar 3 (clean, at low volume)
e|-------------------0-------------------------------------------------------|
B|-------------------3-------------------------------------------------------|
G|-------------------2-------------------------------------------------------|
D|-------------------0-------------------------------------------------------|
A|---------------------------------------------------------------------------|
D|----------------~----------------------------------------------------------|

************************************

| /   slide up
| \   slide down
| h   hammer-on
| p   pull-off
| ~   vibrato
| +   harmonic
| x   Mute note
| b   Bend
| pb  Pre-bend
| br  Bend release
| pbr Pre-bend release
| brb Bend release bend
| ()  notes still ringing
************************************
Tap to rate this tab
# A B C D E F G H I J K L M N O P Q R S T U V W X Y Z