Song name
# A B C D E F G H I J K L M N O P Q R S T U V W X Y Z

Times Of Grace - Fall From Grace tab

Absolutely love this song. Fall from Grace - Times of Grace. It is actually played 
in Drop A, but I'm lazy, so I sounded 

it out by ear in Drop D. Enjoy :)

        a key:   * = palm mute ; # = artificial harmonic ; % = let the chord ring 
out then cut it off ; / = slide

Drop D


Intro:

|--------------------------| I believe its actually a piano, but eh..
|--------------------------|
|-5-----7-----9-----12-----| there is an echo effect, but you could just strum 
|-3-----5-----9-----10-----| each chord softly 3 or 4 times too!
|-3-----5-----7-----10-----| x 2
|-3-----5-----7-----10-----|


Verse 1:
        Guitar 1:
|--------------------------|        |-----------------------------------------------|
|--------------------------|        |-----------------------------------------------|
|-5-----7-----9-----12-----|        |-5-----7---------------------------------------|
|-3-----5-----9-----10-----| x 5    |-3-----5-----7-7-7-7-7-7-7-7-7-7-7-7-7-7-7-7-7-| 
|-3-----5-----7-----10-----|        |-3-----5-----7-7-7-7-7-7-7-7-7-7-7-7-7-7-7-7-7-|
|-3-----5-----7-----10-----|        |-3-----5-----7-7-7-7-7-7-7-7-7-7-7-7-7-7-7-7-7-| 
                                                    * * * *   * * * * *   * * * * *
                                                    x1 Distortion kicks in on 7s
        Guitar 2:
|---------------------------------------------------0---|
|---0---1-0--0----0---1-0--0----0---1-0--0----0---1-----| comes on after the 2nd time
|-2---2---------2---2---------2---2---------2---2-------|  on guitar 1
|-------------------------------------------------------|   x 4
|-------------------------------------------------------|  
|-------------------------------------------------------|




Chorus:
        Both Guitars:
|---------------------------------------------------------------------------|
|---------------------------------------------------------------------------|
|-5-5-5-5-5-5-5-5-7-7-7-7-7-7-7-7-7-9-9-9-9-9-9-9-9-12-12-12-12-12-12-12-12-|
|-3-3-3-3-3-3-3-3-5-5-5-5-5-5-5-5-5-7-7-7-7-7-7-7-7-10-10-10-10-10-10-10-10-|  x 3
|-3-3-3-3-3-3-3-3-5-5-5-5-5-5-5-5-5-7-7-7-7-7-7-7-7-10-10-10-10-10-10-10-10-|
|-3-3-3-3-3-3-3-3-5-5-5-5-5-5-5-5-5-7-7-7-7-7-7-7-7-10-10-10-10-10-10-10-10-|

|---------------------------------------|
|---------------------------------------|
|-5-5-5-5-5-5-5-5-7-7-7-7-7-7-7-7-7-9~--|
|-3-3-3-3-3-3-3-3-5-5-5-5-5-5-5-5-5-9~--| x 1
|-3-3-3-3-3-3-3-3-5-5-5-5-5-5-5-5-5-7~--|
|-3-3-3-3-3-3-3-3-5-5-5-5-5-5-5-5-5-7~--|




Post-Chorus (Fast little transition)
|---------------------------------|
|---------------------------------|
|---------------------------------|
|---------------------------------| 
|---------------------------------|  
|-5---/slide downwards from high--|

(Post-Chorus) Transition part:
|--------------------------------------------------------|
|--------------------------------------------------------|
|--------------------------------------------------------|
|------------------------------------------5---5---5-----| x 1
|-7--5-7--7--5-7--7--/10p9-7-5--3-3-3-3--2---2---2-------|
|-7--5-7--7--5-7--7--/10p9-7-5--3-3-3-3--------------5#V-|
                                         *   *   * 

|--------------------------------------------------------|
|--------------------------------------------------------|
|--------------------------------------------------------|
|------------------------------------------5---5---5-8#b-| x 1
|-7--5-7--7--5-7--7--/10p9-7-5--3-3-3-3--2---2---2-------|
|-7--5-7--7--5-7--7--/10p9-7-5--3-3-3-3------------------|
                                         *   *   * 

Verse 2:

|-----------------------------------------------------------------|
|-----------------------------------------------------------------|
|-----------------------------------------------------------------|
|-7-7-7-7-7-7-7-7-7-7-7-7-7-7-7-7-3-3-3-3-3-3-3-3-3-3-3-3-3-3-3-3-| x 1
|-7-7-7-7-7-7-7-7-7-7-7-7-7-7-7-7-3-3-3-3-3-3-3-3-3-3-3-3-3-3-3-3-|
|-7-7-7-7-7-7-7-7-7-7-7-7-7-7-7-7-3-3-3-3-3-3-3-3-3-3-3-3-3-3-3-3-|
  * * * * * * * * * * * * * * * * * * * * * * * * * * * * * * * *

|-----------------------------------------------------------------|
|-----------------------------------------------------------------|
|-----------------------------------------------------------------|
|-7-7-7-7-7-7-7-7-7-7-7-7-7-7-7-7-3-3-3-3-3-3-3-3-5-5-5-5-5-5-5-5-| x 1
|-7-7-7-7-7-7-7-7-7-7-7-7-7-7-7-7-3-3-3-3-3-3-3-3-5-5-5-5-5-5-5-5-|
|-7-7-7-7-7-7-7-7-7-7-7-7-7-7-7-7-3-3-3-3-3-3-3-3-5-5-5-5-5-5-5-5-|
  * * * * * * * * * * * * * * * * * * * * * * * * * * * * 



Chorus 2:

        Both Guitars:
|---------------------------------------------------------------------------|
|---------------------------------------------------------------------------|
|-5-5-5-5-5-5-5-5-7-7-7-7-7-7-7-7-7-9-9-9-9-9-9-9-9-12-12-12-12-12-12-12-12-|
|-3-3-3-3-3-3-3-3-5-5-5-5-5-5-5-5-5-7-7-7-7-7-7-7-7-10-10-10-10-10-10-10-10-|  x 4
|-3-3-3-3-3-3-3-3-5-5-5-5-5-5-5-5-5-7-7-7-7-7-7-7-7-10-10-10-10-10-10-10-10-|
|-3-3-3-3-3-3-3-3-5-5-5-5-5-5-5-5-5-7-7-7-7-7-7-7-7-10-10-10-10-10-10-10-10-|


Post-Chorus:
        Clean Guitar:
|---------------------------------------------------0---|
|---0---1-0--0----0---1-0--0----0---1-0--0----0---1-----|    comes on after the 2nd time on guitar 1
|-2---2---------2---2---------2---2---------2---2-------|
|-------------------------------------------------------|   x 2
|-------------------------------------------------------|  
|-------------------------------------------------------|

        Distortion guitar after clean ^
|------|     |---------------------------------------------------------------------------------------|
|------|     |---------------------------------------------------------------------------------------|
|------|     |---------------------------------------------------------------------------------------|
|------| x 1 |------------------------------------------------------------------------------------7~-|
|-/~~~~~|     |-3-3-3-3-3-3--5-5-5-5-5-5--7-7-7-7-7-7--10-10-10-10-10-10-3-3-3-3-3-3--5-5-5-5-5-5--7~|
|-/~~~~~|     |-3-3-3-3-3-3--5-5-5-5-5-5--7-7-7-7-7-7--10-10-10-10-10-10-3-3-3-3-3-3--5-5-5-5-5-5--7~|
 slide down      * * * % % %  * * * % % %  * * * # # #  * * * % % % * * * # # #  * * * % % %  



Final Chorus (Amazing Vocals!)
        
        Guitar 1:
|---------------------------------------------------------------------------|
|---------------------------------------------------------------------------|
|-5-5-5-5-5-5-5-5-7-7-7-7-7-7-7-7-7-9-9-9-9-9-9-9-9-12-12-12-12-12-12-12-12-|
|-3-3-3-3-3-3-3-3-5-5-5-5-5-5-5-5-5-7-7-7-7-7-7-7-7-10-10-10-10-10-10-10-10-|  x 5
|-3-3-3-3-3-3-3-3-5-5-5-5-5-5-5-5-5-7-7-7-7-7-7-7-7-10-10-10-10-10-10-10-10-|
|-3-3-3-3-3-3-3-3-5-5-5-5-5-5-5-5-5-7-7-7-7-7-7-7-7-10-10-10-10-10-10-10-10-|

|---------------------------------------|
|---------------------------------------|
|-5-5-5-5-5-5-5-5-7-7-7-7-7-7-7-7-7-9~--|
|-3-3-3-3-3-3-3-3-5-5-5-5-5-5-5-5-5-9~--| x 1
|-3-3-3-3-3-3-3-3-5-5-5-5-5-5-5-5-5-7~--|
|-3-3-3-3-3-3-3-3-5-5-5-5-5-5-5-5-5-7~--|

        Guitar 2:
|-------------------------------------------------------------------------------------------------|
|-13----13----13----13----18----18----18----18----13----13----13----13----15----15----15----15----|
|----16----16----16----16----16----16----16----16----16----16----16----16----16----16----16----16-| 
|-------------------------------------------------------------------------------------------------|
|-------------------------------------------------------------------------------------------------| 
|-------------------------------------------------------------------------------------------------|
 x 6 (on the 6 time
      it stops with
      ringing chord)


Outro:
        Clean guitar
|--------------------------| 
|--------------------------|
|-5-----7-----9-----12-----| 
|-3-----5-----9-----10-----|
|-3-----5-----7-----10-----| x 4  (Fades from 3 to 4 to out)
|-3-----5-----7-----10-----|

And that's it for this awesome song. When I wanted to learn it, there were no tabs 
out there, so I thought I'd take the 

time to figure it out on my own and share it with someone who wanted to learn it. 
I uploaded a horribly edited demonstration to youtube at: http://www.youtube.com/
watch?v=DshZPnj3L_I&feature=youtu.be but it is bad quality, but eh. anywho, Peace!

_____Andy_____
Tap to rate this tab
# A B C D E F G H I J K L M N O P Q R S T U V W X Y Z