Guitaretab - guitar tabs
Song name
# A B C D E F G H I J K L M N O P Q R S T U V W X Y Z

Timo Kotipelto - Journey Back tab

Info for ultimate guitar: Timo Kotipelto is the lead singer of Stratovarius, he has done
two solo records, this tab is from his latest. It is a great artist and Im sure he will
fit into your databaze too!!! Cheers



TIMO KOTIPELTO - JOURNEY BACK 
From the Coldness record (2004)
tabed by loveandtrust@pobox.sk

tune 1/2 step down

Note: A great and simple song from the awsome new finnish metal effort!!! Enjoy and be
sure to fall in love!!!

Intro:
E----------------------------------------------------------------------)
B----------------------------------------------------------------------)
G----------------------------------------------------------------------)
D----------------------------------------------------------------------)
A-7-----------7----------7-8---5---7-----------7---7-------7--10---8---)
E-5---5-5-5-5-5----5-5-5-5-6---3---5---5-5-5-5-5---5-5-5-5-5---8---6---)
[ Tab from: http://www.guitaretab.com/t/timo-kotipelto/53277.html ]
E----------------------------------------------------------------------)
B----------------------------------------------------------------------)
G----------------------------------------------------------------------)
D----------------------------------------------------------------------)
A-7-----------7----------7-8---5---7-----------2-------3-------5-------)
E-5---5-5-5-5-5----5-5-5-5-6---3---5---5-5-5-5-0---0-0-1---1-1-3-------)


Verse:
D5         C5        Bb5   C5 
Im racing down this empty road
Leaving all the black clouds behind
The last rays of the sun are marking the day
A vision that is one of a kind


Verse 2:
Ive been away from all that I love
But now I am back for good or for a while
Going back home, Ive been away too long
I am a stranger I feel like an exile


Chorus:
F5
All I need is here around me
F5                      Bb5          C5 
Ive been searching in all the wrong places
F5
Heres my home where I feel I am free
F5             Bb5         C5  
I am among the ones that I love                (listen for the rhytm)


Solo rhytm: Intro 2x
            Intro 1 step higher 2x
Related for Journey Back tab