Song name
# A B C D E F G H I J K L M N O P Q R S T U V W X Y Z

Timo Raisanen - Aldrig Langt Bort tab

Har försökt att klura ut ackorden men det är svårt. Lilla E-strängen är iallafall med på 
alla strumackord hör man.

Vet heller inte vad ackorden heter men man kan hela tiden ha C formen med fingrarna och 
släppa strängarna bara.
Hammer-off delen kan man lätt göra med lillfingret. Lyssna på låten samtidigt som ni lär 
er den!


Capo 2:a bandet


E--------------------| E--------------------|
B------1---------2---| B------1--------1----|
G----0---0-----0---0-| G----0---0----0---0--|
D------------0-------| D--2-----------------|
A--3-----------------| A-----------3--------|
E--------------------| E--------------------|

E--------------------| E--------------------|
B------1--------1----| B------1-----3/1-1---|
G----0---0----0---0--| G----0---0--------0--|
D--------------------| D--------------------|
A--0--------2--------| A--3-----------------|
E--------------------| E--------------------|



Hon vaknar och ger mig ett livs andetag, precis innan jag ger mig av
Jag dröjer mig inte kvar
Hon vet om, att jag kommer igen. Så som vi dansat och rullat ihop, förevigt förblir hon 
min vän


Även om jag lämnar dig nu, för andra gator och torg, är jag aldrig långt bort ifrån dig, Göteborg


Hon lockar mig med i sin stillsamma puls, men hon håller mig aldrig för hårt. Hon gör 
sig alls inte till
Saltande dräkt i sin lättsamma ton, till döden min sista station


Även om jag lämnar dig nu, för andra gator och torg, är jag aldrig långt bort ifrån dig, Göteborg


Jag vänder mig om, ser Hisingen. Det blir en lång resa igen


För även om jag lämnar dig nu, för andra gator och torg, är du aldrig långt bort ifrån 
mig, mitt Göteborg.
Tap to rate this tab
 
# A B C D E F G H I J K L M N O P Q R S T U V W X Y Z