Guitaretab - guitar tabs
Song name
# A B C D E F G H I J K L M N O P Q R S T U V W X Y Z

Timo Raisanen - Lets Kill Ourselves A Son tab

As you know from searching for it, and clicking it this is a tab for swedish Timo
excellent song Let's Kill Our Selves a Son.

Tuning: Standard with a capo on the fourth fret. This works great acoustic as well.
actually what I tabbed it out from


Verse:

e|--0---0---0---0-0----------------------------------------------------------|
B|--0---0---0---0-0----------------------------------------------------------|
G|--6---6---7---7/9----------------------------------------------------------|
D|--7---7---9---7/9----------------------------------------------------------|
A|--7---7---9---5/7----------------------------------------------------------|
E|--5---0---7---x------------------------------------------------------------|


The last thing is just a quick slide up before going back to the same progression. You
really need it, it just sounds mint. This probably.... well, alright...... definitely
the official way of playing it, but it works great for me! And, besides, itís pretty 
the only tab for this song out there.

Oh yeah, thereís a riff as well. Almost forgot. It's in the verse. It goes like this:

[ Tab from: http://www.guitaretab.com/t/timo-raisanen/87666.html ]
e|---------------------------------------------------------------------------|
B|---------------9-----------------------------------------------------------|
G|--10---8--10---------------------------------------------------------------|
D|---------------------------------------------------------------------------|
A|---------------------------------------------------------------------------|
E|---------------------------------------------------------------------------|

Over and over again. And I know thereís some small thing in the end, but I canít be
figuring that out. It works without it.

Now, this tab might not be perfect, but it may help you figure out the rest. Feel free
comment with corrections. Enjoy
/Ozcat

Lyrics:

Itís time to react. To wipe away the dusks from the storyboard.
And start it up again. Itís time we gave a little more than we reward.

O-oh. Yeah.

Itís starts in their heads. And the heart and soul that play the roll and follow through.
And is it really that hard, or are they kidding us around when they say come on.

Letís kill ourselves a son. Letís stand up and show the world weíre number one.
Yeah, come on. Letís kill ourselves a son. Letís set out and rule the world while weíre
we are number one.

And conscience out the door. You see, love has ceased to be the way to cause relations.
itís up to me and you to send love back. When they say come on.

Letís kill ourselves a son. Letís stand up and show the world weíre number one.
Yeah, come on. Letís kill ourselves a son. Letís set out and rule the world while weíre
we are number one.
Related for Lets Kill Ourselves A Son tab