Song name
# A B C D E F G H I J K L M N O P Q R S T U V W X Y Z

Timo Raisanen - Goodbye Sad Song tab

Highlighted       Show chord diagrams
Intro:
------------------------------------------------------|
e 9-9-9-7-4-4-4-4-5-7-11-11-11-9-4-4-4-4-5-7-| (3x)
B ----------------------------------------------------|
G ----------------------------------------------------|
D ----------------------------------------------------|
A ----------------------------------------------------|
E ----------------------------------------------------|

A E B E (2x, kommer igång efter första varvet av ovanstående)
Do do do...

Vers:
-----
A E C#m (lägg ett lillfinger på e-7 mitt i alla C#m)
Oh my...
A e C#m
A e C#m
A e C#m B

Refräng:
--------
A e B A
Wherever you are...
A e B A
A e? B? A
A e B A

Mellanspel:
-----------
A e B e
Do do do...

Vers:
-----
A e C#m
Tell me have you seen...
A e C#m
A e C#m
A e C#m B

Refräng:
--------
A e B A
Wherever you are...
A e B A
A e? B? A
A e B A

Avslutning:
-----------
A e B e
Do do do...

Utro:
-----------------------------|
e 12-11-9-7-5-4-2-0-|
B ---------------------------|
G ---------------------------|
D ---------------------------|
A ---------------------------|
E ---------------------------|

I introt, mellanspelet och avslutningen spelar jag dessa ackord(låter hyfsat i mina 
men är på inga sätt perfekt):

   A Asus2 e Esus4 e? B 
e Esus4 e?
e -0---0---0---0---0--2--2----0---0---0------|
B -1---0---0---0---0--4--2----0---0---0------|
G -1---1---1---2---1--4--4----1---2---1------|
D -1---1---2---2---2--4--4----2---2---2------|
A -0---0---2---2------2--2----2---2----------|
E ---------0---0--------------0---0----------|

Uppdatera gärna med texten och förbättringar. Mycket nöje!

/Erik
Tap to rate this tab
 
# A B C D E F G H I J K L M N O P Q R S T U V W X Y Z