Song name
# A B C D E F G H I J K L M N O P Q R S T U V W X Y Z

Timo Rautiainen And Trio Niskalaukaus - Kalter Zustand Kylm Tila tab

Help us improve GuitareTab! Take a short survey!
This is the beginning 
Repeat 6 Times

e |-------15-(15)-------18-(18)-------15-(15)-|
B |----13----(13)----16----(16)----13----(13)-|
G |-12-------(12)-15-------(15)-12-------(12)-|
D |-------------------------------------------|
A |-------------------------------------------|
D |-------------------------------------------|
  |________________LET__RING__________________|


e |-------13-(13)-------18-(18)-|
B |----11----(11)----16----(16)-|
G |-10-------(10)-15-------(15)-|
D |-----------------------------|
A |-----------------------------|
D |-----------------------------|
  |_________LET__RING___________|
Related for Kalter Zustand Kylm Tila tab