Song name
# A B C D E F G H I J K L M N O P Q R S T U V W X Y Z

Timoria - Sangue Impazzito tab

Date: Sun, 19 Dec 2004
From: Enrico
Subject: Sangue Impazzito (intro), by Timoria

----0-----------2-------2---0-----------2-|--2-0-------0-----------0--------|
--------0---3-------3-----3-----0---3-----|--3-0-3-3-------0---0-------0----|
------4---4---4---4---4-------4---4---4---|--4-4-0-0-----0---0---0---0---0--|
------------------------------------------|---------------------------------|
----2-----------2-----------2-----------2-|--2-0-2-2-2---------2------------|
------------------------------------------|---------------------------------|

-----0------------------------------0-----------------|----------------------|
-3-----3-2-0-2-----2-2h3p2---2---------0-------0h3p0--|----------------------|
---2-----2-2-2---2---------4---4---------4---4--------|----------------------|
---------------2-----------------4---------4----------|----------------------|
-0-------0-0-0-----------------2---2------------------|----------------------|
------------------------------------------------------|----------------------|

Check the song out for times ang ringing notes.

For any comment please send to:

enriko80@hotmail.com
Tap to rate this tab
# A B C D E F G H I J K L M N O P Q R S T U V W X Y Z