Song name
# A B C D E F G H I J K L M N O P Q R S T U V W X Y Z

Timoria - Un Volo Splendido tab

UN VOLO SPLENDIDO (da "1999" - Timoria)
   DO
   \     \           \     \
e|-----------------|-----------------|-
b|-----------------|-----------------|-
g|-5-5-5-4-4-4-4-4-|-5-5-5-4-4-4-4-4-|-
d|-5-5-5-5-5-5-5-5-|-5-5-5-5-5-5-5-5-|-
a|-3-3-3-3-3-3-3-3-|-3-3-3-3-3-3-3-3-|-
e|-----------------|-----------------|-

  MI-			       SOL
      \     \            \     \
e|-----------------|-----------------|-
b|-----------------|-----------------|-
g|-----------------|-----------------|-
d|-2-2-2-2-2-2-2-2-|-2-2-2-2-2-5-5-5-|-
a|-2-2-2-2-2-2-2-2-|-2-2-2-2-2-5-5-5-|-
e|-0-0-0-0-0-0-0-0-|-0-0-0-0-0-3-3-3-|-

DO                            MI-
Sapr? mai - un amore che cosa sia
DO			       MI-
Tu ce l'hai - e lo lasci andar via
DO			    MI-
Correr? per averlo dovunque sia
DO			     MI-
Tu lo sai - e lo lasci andar via

	SOL		 DO    		 SOL
	La questione non ? se non faccia ridere
	       MI-	   DO
	Questa maschera da clown
			     SOL
	che non esce dal suo down
			  DO		      SOL	
	E se poi passi di qui quando mi sento cos?
	       MI-	    DO
	non parlare ma se vuoi
			      [riff]
	dimmi un po' di cazzi tuoi

Sapr? mai un amore che cosa sia
Tuce l'hai e lo lasci andar via
Correr? per averlo dovunque sia
Tu lo sai - e lo lasci andar via

Una vita che non ? - fatta per rincorrere sogni che
non sono i tuoi - questo chiedono gli eroi
Hai provato a vivere - solo come piace a te
non ? facile lo so -
	          SOL MI- RE#-
anche solo un attimo  ooo ooo.....
	       SOL
un volo splendido
MI-   FA
uoooo oooo
	    SOL
solo un attimo....
Tap to rate this tab
 
# A B C D E F G H I J K L M N O P Q R S T U V W X Y Z