Song name
# A B C D E F G H I J K L M N O P Q R S T U V W X Y Z

Timoria - Senza Vento tab

Timoria - Senza Vento solo tab by LorenzWinMX

e-----------------------------------------------------------|
B-------12--12--12--12--12----------------------------------|
G---5/12--12--12--12--12--12-----12h14h12-------12----------|
D------------------------------------------14--------14~~~~-|
A-----------------------------------------------------------|
E-----------------------------------------------------------|


|---------------------------------------------------------------------------|
|------------------------12-12h13-15--13---12h13h12-------------------------|
|---12-12-12~~~~~--12h14------------------------------14--12/11-12-14-12-11-|
|---12-12-12~~~~~-----------------------------------------------------------|
|---------------------------------------------------------------------------|
|---------------------------------------------------------------------------|


|----------------------------15----------|
|-12h13--15--13--15-15/17--------17------|
|----------------------------------------|
|----------------------------------------|
|----------------------------------------|
|----------------------------------------|

Per correzione errori contattatemi su lorenzwinmx@hotmail.it
so che non e' il massimo.. sopratutto perche' e' la prima che scrivo ufficialmente!

LorenzWinMx
Tap to rate this tab
 
# A B C D E F G H I J K L M N O P Q R S T U V W X Y Z