Song name
# A B C D E F G H I J K L M N O P Q R S T U V W X Y Z

Tin Can Phone - The Haven tab

The song start with a Am chord




              F                               G

|--8-8-8-8-8-5------------5---|--8-8-8-8-8-5-----------------|
|---------------8--5-----5----|---------------8--5-----5-----|
|---------------------7-------|---------------------7--------|
|-----------------------------|-------------------------7----|
|-----------------------------|------------------------------|
|-----------------------------|------------------------------|

              Am                              C

|--8-8-8-8-8-5------------5---|--8-8-8-8-8-5-----------------|
|---------------8--5-----5----|---------------8--5-----5-----|
|---------------------7-------|---------------------7--------|
|-----------------------------|-------------------------7----|
|-----------------------------|------------------------------|
|-----------------------------|------------------------------|
Tap to rate this tab
 
# A B C D E F G H I J K L M N O P Q R S T U V W X Y Z