Song name
# A B C D E F G H I J K L M N O P Q R S T U V W X Y Z

Tin Foil Phoenix - Ms Genova tab

Verse      play 4x clean     gtr I                          [1]
e|--------------------------------------------------------|
B|--------------------8-8-x-x---------------------5-5-x-x-|
G|--------------------8-8-x-x---------------------5-5-x-x-|
D|---5---5-x-x-x-x----8-8-x-x----8---8-x-x-x-x----5-5-x-x-|
A|---5---5-x-x-x-x----6-6-x-x----8---8-x-x-x-x----3-3-x-x-|
E|---3---3-x-x-x-x---------------6---6-x-x-x-x------------|

Verse   play 4x distorted         gtr I,II                  [2]
e|--------------------------------------------------------|
B|--------------------8-8-x-x---------------------5-5-x-x-|
G|--------------------8-8-x-x---------------------5-5-x-x-|
D|---5---5-x-x-x-x----8-8-x-x----8---8-x-x-x-x----5-5-x-x-|
A|---5---5-x-x-x-x----6-6-x-x----8---8-x-x-x-x----3-3-x-x-|
E|---3---3-x-x-x-x---------------6---6-x-x-x-x------------|

  Chorus 1    Distorted                      gtr I & II                                   [3]
e|--------------------------------------------------------------------------|
B|--------------------------------------------------------------------------|
G|---------------------3-3-3-3-3-3-3-3--------------------------------------|
D|---5-5-5-5-5-5-5-5---3-3-3-3-3-3-3-3---3-3-3-3-3-3-3-3---5-5-5-5-5-5-5-5--|
A|---5-5-5-5-5-5-5-5---1-1-1-1-1-1-1-1---3-3-3-3-3-3-3-3---5-5-5-5-5-5-5-5--|
E|---3-3-3-3-3-3-3-3---------------------1-1-1-1-1-1-1-1---3-3-3-3-3-3-3-3--|

e|----------------------------------------------------------|
B|----------------------------------------------------------|
G|---------------------3-3-3-3-3-3-3-3----------------------|
D|---5-5-5-5-5-5-5-5---3-3-3-3-3-3-3-3--3-3-3-3-3-3-3-3-----|
A|---5-5-5-5-5-5-5-5---1-1-1-1-1-1-1-1--3-3-3-3-3-3-3-3-----|
E|---3-3-3-3-3-3-3-3--------------------1-1-1-1-1-1-1-1-----|

Riff A      play 2x Distorted       gtr I                                            gtr II                       [4]
e|--------------------------------------------------------|--------------------------------------------------|
B|--------------------8-8-x-x---------------------5-5-x-x-|-----------------11----11----------------8----8---|
G|--------------------8-8-x-x---------------------5-5-x-x-|------7----7---8----8------10----10---5----5------|
D|---5---5-x-x-x-x----8-8-x-x----8---8-x-x-x-x----5-5-x-x-|----5----5--------------8----8--------------------|
A|---5---5-x-x-x-x----6-6-x-x----8---8-x-x-x-x----3-3-x-x-|--------------------------------------------------|
E|---3---3-x-x-x-x---------------6---6-x-x-x-x------------|--------------------------------------------------|

Verse      play 4x clean     gtr I                          [5]
e|--------------------------------------------------------|
B|--------------------8-8-x-x---------------------5-5-x-x-|
G|--------------------8-8-x-x---------------------5-5-x-x-|
D|---5---5-x-x-x-x----8-8-x-x----8---8-x-x-x-x----5-5-x-x-|
A|---5---5-x-x-x-x----6-6-x-x----8---8-x-x-x-x----3-3-x-x-|
E|---3---3-x-x-x-x---------------6---6-x-x-x-x------------|
     play 2x                         gtr II                       [5] (wait for gtr I to play through 2x)
e|--------------------------------------------------|
B|------------------11---11----------------8----8---|
G|------7----7---8----8------10----10---5----5------|
D|----5----5--------------8----8--------------------|
A|--------------------------------------------------|
E|--------------------------------------------------|

  Chorus 2    Distorted           gtr  I &  2                                              [6]
e|--------------------------------------------------------------------------|
B|--------------------------------------------------------------------------|
G|---------------------3-3-3-3-3-3-3-3--------------------------------------|
D|---5-5-5-5-5-5-5-5---3-3-3-3-3-3-3-3---3-3-3-3-3-3-3-3---5-5-5-5-5-5-5-5--|
A|---5-5-5-5-5-5-5-5---1-1-1-1-1-1-1-1---3-3-3-3-3-3-3-3---5-5-5-5-5-5-5-5--|
E|---3-3-3-3-3-3-3-3---------------------1-1-1-1-1-1-1-1---3-3-3-3-3-3-3-3--|

e|--------------------------------------------------------------------------------|
B|--------------------------------------------------------------------------------|
G|---------------------3-3-3-3-3-3-3-3--------------------------------------------|
D|---5-5-5-5-5-5-5-5---3-3-3-3-3-3-3-3---3-3-3-3-3-3-3-3----5~--------------------|
A|---5-5-5-5-5-5-5-5---1-1-1-1-1-1-1-1---3-3-3-3-3-3-3-3----5~--------------------|
E|---3-3-3-3-3-3-3-3---------------------1-1-1-1-1-1-1-1----3~--------------------|


Bridge       Gtr  I & II                                         [7]
e|-------------------------------------------------------------------------|
B|-------------------------------------------------------------------------|
G|---8-8-8-8-8-8-8-8--------------------------------------5-5-5-5-5-5-5-5--|
D|---8-8-8-8-8-8-8-8---8-8-8-8-8-8-8-8---5-5-5-5-5-5-5-5--5-5-5-5-5-5-5-5--|
A|---6-6-6-6-6-6-6-6---8-8-8-8-8-8-8-8---5-5-5-5-5-5-5-5--3-3-3-3-3-3-3-3--|
E|---6-6-6-6-6-6-6-6---6-6-6-6-6-6-6-6---3-3-3-3-3-3-3-3--3-3-3-3-3-3-3-3--|

e|--------------------------------------------|
B|--------------------------------------------|
G|---8-8-8-8-8-8-8-8--------------------------|
D|---8-8-8-8-8-8-8-8---8-8-8-8-8-8-8-8---5~---|
A|---6-6-6-6-6-6-6-6---8-8-8-8-8-8-8-8---5~---|
E|---6-6-6-6-6-6-6-6---6-6-6-6-6-6-6-6---3~---|

Solo        gtr I                         [8]
e|-------------------------------------------------------------------------------------------------------------------|
B|-------------------------------------------------------------------------------------------------------------------|
G|------------------------------3-3--3-3-3-3--5-5--5-5-5-5------------------------------3-3--3-3-3-3--5-5--5-5-5-----|
D|--5-5--5-5-5-5--5-5--5-5-5-5--3-3--3-3-3-3--5-5--5-5-5-5--5-5--5-5-5-5--5-5--5-5-5-5--3-3--3-3-3-3--5-5--5-5-5-5~--|
A|--5-5--5-5-5-5--5-5--5-5-5-5--1-1--1-1-1-1--3-3--3-3-3-3--5-5--5-5-5-5--5-5--5-5-5-5--1-1--1-1-1-1--3-3--3-3-3-5~--|
E|--3-3--3-3-3-3--3-3--3-3-3-3------------------------------3-3--3-3-3-3--3-3--3-3-3-3---------------------------3~--|


        Gtr II                      [8]
e|----------------------------------------------------------------------------------------------------------------|
B|----------------------------------------------------------------------------------------------------------------|
G|-------------------------2/3--3-3-3-3----5/7--7-7-7-7--------------------------2/3--3-3-3-3----5/7--7-7-7-5-----|
D|--5-5--5-5-5--5-5--5-5-5--------------------------------5-5--5-5-5--5-5--5-5-5------------------------------5~--|
A|----------------------------------------------------------------------------------------------------------------|
E|----------------------------------------------------------------------------------------------------------------|


Verse      play 4x clean     gtr I                          [9]
e|--------------------------------------------------------|
B|--------------------8-8-x-x---------------------5-5-x-x-|
G|--------------------8-8-x-x---------------------5-5-x-x-|
D|---5---5-x-x-x-x----8-8-x-x----8---8-x-x-x-x----5-5-x-x-|
A|---5---5-x-x-x-x----6-6-x-x----8---8-x-x-x-x----3-3-x-x-|
E|---3---3-x-x-x-x---------------6---6-x-x-x-x------------|

  Chorus 3    Distorted             Play 4x                                            [IO]
e|---------------------------------------------------------------------------|
B|---------------------------------------------------------------------------|
G|---------------------3-3-3-3-3-3-3-3---------------------------------------|
D|---5-5-5-5-5-5-5-5---3-3-3-3-3-3-3-3---3-3-3-3-3-3-3-3----5-5-5-5-5-5-5-5--|
A|---5-5-5-5-5-5-5-5---1-1-1-1-1-1-1-1---3-3-3-3-3-3-3-3----5-5-5-5-5-5-5-5--|
E|---3-3-3-3-3-3-3-3---------------------1-1-1-1-1-1-1-1----3-3-3-3-3-3-3-3--|

  Last time Through Finish Holding the last chord

http://www.tinfoilphoenix.com/
Tap to rate this tab
# A B C D E F G H I J K L M N O P Q R S T U V W X Y Z