Song name
# A B C D E F G H I J K L M N O P Q R S T U V W X Y Z

Tina Dico - Head Shop tab

These are the basic chrords. you need to be in DADGAD tuning.
Fill in the blanks with strumming for what you see fit. 
i only had time to tab this out. 
Feel free to make corrections, but i think this is pretty much it..  
(please note i referenced these from a live youtube clip. 
but yea it should work either way.
~Dj2Quick
Verse:

D|0--0--0-0--0--0-|
A|0--0--0-0--0--0-|
G|7--7--7-4--4--4-|
D|9--9--9-5--5--5-|
A|0--0--0-0--0--0-|
D|9--9--9-5--5--5-|
x3

D|0--0--0-0--0--0-|
A|0--0--0-0--0--0-|
G|0--0--0-4--4--4-|
D|2--2--2-5--5--5-|
A|0--0--0-0--0--0-|
D|2--2--2-5--5--5-|
x1

D|0--0--0-0--0--0-|
A|0--0--0-0--0--0-|
G|7--7--7-4--4--4-|
D|9--9--9-5--5--5-|
A|0--0--0-0--0--0-|
D|9--9--9-5--5--5-|
x3

D|0--0--0-0--0--0-|
A|0--0--0-0--0--0-|
G|0--0--0-4--4--4-|
D|2--2--2-5--5--5-|
A|0--0--0-0--0--0-|
D|2--2--2-5--5--5-|
x2


Chorus:
D|0--0--0-0--0--0-|
A|0--0--0-0--0--0-|
G|7--4--4-6--6--6-|
D|9--5--5-7--7--7-|
A|0--0--0-0--0--0-|
D|9--5--5-7--7--7-|
x3

D|0--0--0-0--0--0-|
A|0--0--0-0--0--0-|
G|4--4--4-0--0--0-|
D|5--5--5-2--2--2-|
A|0--0--0-0--0--0-|
D|5--5--5-2--2--2-|
x1

Bridge:
D|0--0--0-0--0--0-|0--0--0-0--0--0-|
A|0--0--0-0--0--0-|0--0--0-0--0--0-|
G|4--4--4-4--4--4-|7--7--7-7--7--7-|
D|5--5--5-5--5--5-|9--9--9-9--9--9-|
A|0--0--0-0--0--0-|0--0--0-0--0--0-|
D|5--5--5-5--5--5-|9--9--9-9--9--9-|

D|0--0--0-0--0--0-|0--0--0-0--0--0-|
A|0--0--0-0--0--0-|0--0--0-0--0--0-|
G|4--4--4-4--4--4-|6--6--6-6--6--6-|
D|5--5--5-5--5--5-|7--7--7-7--7--7-|
A|0--0--0-0--0--0-|0--0--0-0--0--0-|
D|5--5--5-5--5--5-|7--7--7-7--7--7-|

Chorus

D|0--0--0-0--0--0-|
A|0--0--0-0--0--0-|
G|7--4--4-6--6--6-|
D|9--5--5-7--7--7-|
A|0--0--0-0--0--0-|
D|9--5--5-7--7--7-|
x3

D|0--0--0-0--0--0-|
A|0--0--0-0--0--0-|
G|4--4--4-6--6--6-|
D|5--5--5-7--7--7-|
A|0--0--0-0--0--0-|
D|5--5--5-7--7--7-|
x1

D|0--0--0-0--0--0-|
A|0--0--0-0--0--0-|
G|7--4--4-6--6--6-|
D|9--5--5-7--7--7-|
A|0--0--0-0--0--0-|
D|9--5--5-7--7--7-|
x3

D|0--0--0-0-------|
A|0--0--0-0-------|
G|4--4--4-0-------|
D|5--5--5-2-------|
A|0--0--0-0-------|
D|5--5--5-2-------|
x1

Tap to rate this tab
 
# A B C D E F G H I J K L M N O P Q R S T U V W X Y Z