Song name
# A B C D E F G H I J K L M N O P Q R S T U V W X Y Z

Tina Dico - The Other Side chords

Highlighted       Show chord diagrams
Tina Dico - The Other Side (acoustic)
-------------------------------------

Capo 1

C/G   332010

This song is quite simple and she plays it with a walking bass and adds
some bass runs here and there. The bass note is picked on count one and three
and on count two and four is a down- and upstroke. I am not sure about every-
thing as I had to tab it by ear only.

Verse
-----

  C/G      C/G      C/G      E        E        D        D        
e|--00--00|--00--00|--00--00|--00--00|--00--00|--22--22|--22--22|
B|--11--11|--11--11|--11--11|--00--00|--00--00|--33--33|--33--33|
G|--00--00|--00--00|--00--00|--11--11|--11--11|--22--22|--22--22|
D|--22--22|--22--22|--22--22|2-22--22|2-22--22|0-00--00|0-00--00|
A|3-------|3-------|3-------|----2---|----2---|----0---|----0---|
E|----3---|----3---|----3---|--------|--------|--------|--------|
    ^v  ^v   ^v  ^v   ^v  ^v   ^v  ^v   ^v  ^v   ^v  ^v   ^v  ^v 
    I...   dream... night... worst... years... biting...pillow...

  G        G        C/G      C/G      C/G      C/G      E        
e|--33--33|--33--33|--00--00|--00--00|--00--00|--00--00|--00--00|
B|--33--33|--33--33|--11--11|--11--11|--11--11|--11--11|--00--00|
G|--00--00|--000-00|--00--00|--00--00|--000-00|--000-00|--11--11|
D|--000-00|--00--00|--22--22|--22--22|--22--22|--22--22|--22--22|
A|--------|--------|3-------|3-------|3-------|3-------|----2---|
E|3-------|3-------|----3---|----3---|--------|--------|0-------|
    ^v  ^v   ^v  ^v   ^v  ^v   ^v  ^v   ^v  ^v   ^v  ^v   ^v  ^v  
  waking...tears....knocking.door...  been...  life...Expectat...

  
  D        G        G        G        G  
e|--22--22|--33--33|--33--33|--33--33|--33--33|  
B|--33--33|--33--33|--33--33|--33--33|--33--33|  
G|--22--22|--00--00|--000-00|--000-00|--000-00|  
D|0-00--00|--000-00|--00--00|--00--00|--00--00|  
A|----0---|--------|--------|--------|--------|  
E|--------|3-------|3-------|3-------|3-------|  
    ^v  ^v   ^v  ^v   ^v  ^v   ^v  ^v   ^v  ^v  
  on the...side                        ... On the other...
  
Chorus
------
  
  C/G      C/G      C/G      C/G      E        D        
e|--00--00|--00--00|--00--00|--00--00|--00--00|--22--22|
B|--11--11|--11--11|--11--11|--11--11|--00--00|--33--33|
G|--000-00|--000-00|--00--00|--00--00|--11--11|--22--22|
D|--22--22|--22--22|--22--22|--22--22|--22--22|0-00--00|
A|3-------|3-------|3-------|3-------|----2---|----0---|
E|--------|--------|----3---|----3---|0-------|--------|
    ^v  ^v   ^v  ^v   ^v  ^v   ^v  ^v   ^v  ^v   ^v  ^v  
  side..    on..    side...         Expecting..on...    
  
  E        E        E        E        
e|--00--00|--00--00|--00--00|--00----|   
B|--00--00|--00--00|--00--00|--00----|   
G|--11--11|--11--11|--11--11|--11----|   
D|2-22--22|2-22--22|2-22--22|2-221-0-|   <= rundown to verse 2
A|----2---|----2---|----2---|--------|   
E|--------|--------|--------|--------|     
  side...           side...      Thereīs a ...
   ^v  ^v   ^v  ^v   ^v  ^v   ^v         
  
  
  
Intro       C/G C/G C/G
  
Verse 1     C/G       C/G        C/G
              I had a dream last night
                E             E
            The worst in many years
                   D            D
            Had me biting on my pillow
                   G            G
            Had me waking up in tears
                C/G             C/G
            I was knocking on a door
                  C/G              C/G
            Iíd been knocking all my life
              E                    D            G        G  G  G
            Expecting great things on the other side

Chorus                     C/G    C/G             C/G   C/G
            On the other side      On the other side
              E                    D            E     E  E  E
            Expecting great things on the other side

Verse 2                   C/G     C/G
              There was a beam of light
              E                   E
            I sensed the time was near
               D                D
            I was getting all excited
                   G                 G
            Saw my future bright and clear
                C/G             C/G
            The lock gave out a roar
                    C/G            C/G
            And the door slid open wide
                  E                D              G     G  G  G
            I was free to walk out on the other side

Chorus                     C/G   C/G            C/G   C/G 
            On the other side      On the other side
                    E                D             E    E  E  E
            Finally free to walk out on the other side

Verse 3                        C/G            C/G
               Thatís when the dream got frightening
                  E             E
            I was not at all prepared
                    D               D
            For the empty hall that met me
                       G                G
            And the truth that lived in there
                  C/G           C/G
            The castle and the king
                       C/G          C/G
            And the diamonds in the sky
                 E             D                 G     G  G  G
            Were nowhere to be seen on the other side

Chorus                   C/G   C/G            C/G   C/G
            On the other side    On the other side
                      E              D            G    G  G  G 
            No, there were no lights on the other side
                         C/G   C/G            C/G   C/G
            On the other side    On the other side
                      E               D            E     E  E  E
            Yeah, the lights were off on the other side

Verse 4                 C/G      C/G
            Now, if the dream is right
              E                  E
            And if Iím thinking clear
              D                     D              G            G
            I guess I should be thankful to have woken up right here
                C/G               C/G       C/G        C/G
            And not half-way up a ladder into an empty sky
                   E          D      C/G              C/G   C/G C/G 
            Not looking for a better place to live my life
                  E                        D               G      G  G  G
            No, I think Iíll just stay and live it on this side 

Chorus              C/G   C/G       C/G   C/G
            On this side    On this side
                      E                D            G
            Iíll just stay and live my life on this side
            
            
-----------------------------------------------------------------------------------
Tabbed in July 2012.    Hope you enjoy it.  Joern
Send any corrections or comments to:    MCWZQQGXYUHK@spammotel.com        
Tap to rate this tab
 
# A B C D E F G H I J K L M N O P Q R S T U V W X Y Z