Song name
# A B C D E F G H I J K L M N O P Q R S T U V W X Y Z

Tina Dico - No Time To Sleep tab

Hi Guys, here are the tabs from her song No Time To Sleep.
I like this song and tryed to tab it with my guitars.
I saw some videos in the internet that show you how to do,
but i never found the right one, so i tryed to mix all of them
and with listen to the song and slowed it down for better focusing.
I think I got it almost. This is my first tab, so do not judge me :).
I am also a beginner and learning by doing right :D

Tuning is standart: E,A,D,G,B,e an the Capo goes on the 4th or 5th fret.

Intro:

   Am                        C
E|----------------------------------------------------|
A|---------1------------1------------1----------------|
D|-----------2------------0------------0-----0------0-|
G|----2-----2------2-----2------2-----2-----2----0-2--|
B|-0-----0------0-----0------3-----3------3-----2-----|
e|----------------------------------------------------|
   G                          Em

E|----------------------------------------------------|
A|---------0--------------------------0-------------0-|
D|-----------0-------0-----0------------0-----0-------|
G|----0-----0------0------0------2-----2-----2-----2--|
B|-----------------------2------------------------2---|
e|-3-----3-------3------2-----0-----0------0-----0----|

1. Verse

   Am                         C
E|-----------------------------------------------------|
A|---------1--------------------------1----------------|
D|-----------2-----2--------------------0-----0------0-|
G|----2-----2-----2--------2-----2-----2-----2----0-2--|
B|-0-----0------0-----0-2-3---3-----3------3-----2-----|
e|-----------------------------------------------------|
         Who's gonna...    ...change. If no one...

   G                          Em
E|----------------------------------------------------|
A|---------0--------------------------0-------------0-|
D|-----------0-------0-----0------------0-----0-------|
G|----0-----0------0------0------2-----2-----2-----2--|
B|-----------------------2------------------------2---|
e|-3-----3-------3------2-----0-----0------0-----0----|
   imagine...        ...track

   Am                         C
E|-----------------------------------------------------|
A|---------1--------------------------1----------------|
D|-----------2-----2--------------------0-----0------0-|
G|----2-----2-----2--------2-----2-----2-----2----0-2--|
B|-0-----0------0-----0-2-3---3-----3------3-----2-----|
e|-----------------------------------------------------|
   And who's gonna...      ...train. If no one...

   G                          Em
E|----------------------------------------------------|
A|---------0--------------------------0-------------0-|
D|-----------0-------0-----0------------0-----0-------|
G|----0-----0------0------0------2-----2-----2-----2--|
B|-----------------------2------------------------2---|
e|-3-----3-------3------2-----0-----0------0-----0----|
   dwell...          ...back

That the first part I was focusing on. I will go on late when i have time for ist.
Hope you like it and if there are some mistakes that you find, let me know it.
Together we figure out to tab this song :).

MfG Kymahri
Tap to rate this tab
 
# A B C D E F G H I J K L M N O P Q R S T U V W X Y Z