Song name
# A B C D E F G H I J K L M N O P Q R S T U V W X Y Z

Tina Dico - The Citylondon tab

Tina Dico -  The City/London
Album: Welcome back colour
tabbed by havana86

Capo 5th  fret
Tuning: DADGAD

Intro/Verse:

D/------------------------------------------------------------------|
A/---------2p0----------------0---------------0--------------0------|
G/---------------0----------0---0-----------0---0----------5b---0---|
D/------2-----------------0---------------0--------------0----------|
A/---0--------------------------------------------------------------|
D/---------------------3--------------3/5-------------0-------------|

D/----------------------------------------------------------------------------|
A/-----------2p0---0------------0-----------------0----------------0----------|
G/----------------------------0---0-------------0---0-----------5b---0--------|
D/------0h2-----2-----------0-----------------0---------------0---------------|
A/---0------------------------------------------------------------------------|
D/------------------------3--------------3/5---------------0------------------|

Where are you now, my friend?
Pulling your bike past their windows again?
You know they won't let you in
You don't change the city
The city changes you

Where are you now, my love?
Still in the war with the Aphrodite Mob?
What was I thinking of?
You don't change the city
The city changes you

Bridge:
D/--------------------------------------------------------------|
A/-----------0----------0--------------0---------------0--------|
G/--------0-----------0---0----------0---0-----------0---0------|
D/-----4------------0--------------0---------------0------------|
A/--------------------------------------------------------------|
D/--0--- ---------3-------------3--------------3/5--------------|

D/-------------------------------------------------------------------|
A/---------0--------------2p0---------------0---------------0--------|
G/-------0---0-----------------0----------0---0-----------0----0-----|
D/-----0---------------2----------------0---------------0------------|
A/-------------------0-----------------------------------------------|
D/--5--- -----------------------------3-------------3/5--------------|

Under the lights
Fall into the rhythm
You close your eyes
You don't see your shadows
Your shadow watches you

Interlude

Verse:
Where does it go, my love?
A mere song that echoed from the rooftops above
Ive given all but I wont give up
You don't touch the magic
The magic touches you

Bridge:
You close your eyes
And Fall into the rhythm
Under the lights
You dont see your shadows
Your shadows watching you

Verse:
Someday I have to say goodbye
to the City that moved me
confused me and soothed me
Someday I have to say goodbye
to London  yeah


Im flying over London
on a cold November night
the river snakes across
the vast ocean of electric lights


the city is a living creature
all on its own
and we all push like blood trough its veins
so close together
so close together
so close together
and so alone
Tap to rate this tab
# A B C D E F G H I J K L M N O P Q R S T U V W X Y Z