Song name
# A B C D E F G H I J K L M N O P Q R S T U V W X Y Z

Tinashe - Zambezi tab

The Verse/Chorus repeats throughout song.  Occasionally he drops a few notes at the end 
of each progression or switches the order of the low notes but this will give you a good 
starting point to begin playing.


Intro:

E-----------------------------------------------------------------|
B------8---5----------8---5----------8---5----------8---5---------|
G--------7---5----------7---5----------7---5----------7---5-------|
D---5--------------5----------------------------------------------|
A---------------------------------7-------------------------------|
E------------------------------------------------8----------------|

E-----------------------------------------------------------------|
B------8---5----------8---5----------8---5----------8---5---------|
G--------7---5----------7---5----------7---5----------7---5-------|
D---5--------------5----------------------------------------------|
A---------------------------------7-------------------------------|
E------------------------------------------------8----------------|


Verse/Chorus

E-----------------------------------------------------------------|
B------8---5-----8---5------8---5-----8---5------8---5-----8---5--|
G--------7----5----7----------7----5----7----------7----5----7----|
D---5--------------------5----------------------------------------|
A---------------------------------------------7-------------------|
E-----------------------------------------------------------------|

E-----------------------|
B------8---5-----8---5--|
G--------7----5----7----|
D-----------------------|
A-----------------------|
E---8-------------------|
Tap to rate this tab
 
# A B C D E F G H I J K L M N O P Q R S T U V W X Y Z