Song name
# A B C D E F G H I J K L M N O P Q R S T U V W X Y Z

Tindersticks - Another Night In tab

-------------------------------------------------------------------------------
                             Another Night In - Tindersticks
-------------------------------------------------------------------------------
Tabbed by: Trifonas
Email: trifwnas@hotmail.gr

Tuning: Standard EADGBe (Low To High)

Intro:
    Bbm     Ab          F#           Fm
e|----------------------------------------------|
B|--2--2-2p1---2---2-2p1----2---2-2-1-1----1-2--|
G|-----------3-----------3---------------3------|
D|----------------------------------------------|   
A|----------------------------------------------|
E|----------------------------------------------|

then this before verse: (played on piano)
e|-----------------------------------|
B|------1---2------------------------|
G|-----1---3-------------------6-----|
D|---3----3--------------------8-----|
A|-----------------------------8-----|
E|---------------------1-----4-6-----|

Verse: (you can play either this or the chords below - he plays it on piano)
e|---------------------------------------------------|
B|---------------------------------------------------|
G|----6--6------5---3--3-----1--1------1-------------|
D|----8--8-----6----4--4----3--3-----3---------------| (this is also played in the intro)
A|----8--8----6-----4--4----3--3----3----------------|
E|----6--6---4------2--2----1--1---1-----------------|

 
Bbm          Ab                  
Greed's all gone now, 
             F#      Fm
there's no question
          Bbm                                 Ab     
And I can see you push your hair behind your ears, 
             F#     Fm
Regain your balance
        Bbm              Ab                
Doesn't matter where she is tonight, 
           F#                   Fm
Or with whoever she spends her time
         Bbm                 Ab                  
If these arms were meant to hold her,
           F#                         Fm
They were never meant to hold her so tight

Verse 2:
e|---------------------------------------------------|
B|---------------------------------------------------|
G|----6--6------5---3--3-----1--1------1-------------|
D|----8--8-----6----4--4----3--3-----3---------------| 
A|----8--8----6-----4--4----3--3----3----------------|
E|----6--6---4------2--2----1--1---1-----------------|

e|----------------------------------------------|
B|--2--2-2p1---2---2-2p1----2---2-2-1-1----1-2--|
G|-----------3-----------3---------------3------|
D|----------------------------------------------|   
A|----------------------------------------------|
E|----------------------------------------------|
                     Bbm
For the love of that girl
             Ab            
Greed's all gone now, 
      F#       Fm
the panic subsides
             Bbm                   Ab              
When I could run, pulling arms to love her,
       F#                      Fm
Try to put myself on on the inside

Chorus:
e|-------------------------------------------|
B|-------------------------------------------|
G|-12---8---10--7---7-8-10-12--12--10--8-7---|
D|-------------------------------------------| (this is played with strings)
A|-------------------------------------------|
E|-------------------------------------------|
                     Cm                          
For the love of that girl, 
   
Tears swell,
     Gm          G7
you don't know why
                     Cm                                   
For the love of that girl, 

They never fall, 
          Gm        G7
they can never run dry
                      Bbm
For the love of that girl
e|----------------------------------------------|
B|--2--2-2p1---2---2-2p1----2---2-2-1-1----1-2--|
G|-----------3-----------3---------------3------|
D|----------------------------------------------|   
A|----------------------------------------------|
E|----------------------------------------------|

e|----------------------------------------------|
B|--2--2-2p1---2--2-4-2p1---2---2-2-1-1----1-2--|
G|-----------3------------3--------------3------|
D|----------------------------------------------|   
A|----------------------------------------------|
E|----------------------------------------------|

Verse 3:
e|---------------------------------------------------|
B|---------------------------------------------------|
G|----6--6------5---3--3-----1--1------1-------------|
D|----8--8-----6----4--4----3--3-----3---------------| 
A|----8--8----6-----4--4----3--3----3----------------|
E|----6--6---4------2--2----1--1---1-----------------|
Bbm              Ab               
Promise is never over, 
            F#                            Fm
never questioned it needed reply
e|------------|
B|------------|
G|--10--9-10--|
D|------------|
A|------------|
E|------------|
                Bbm                 Ab    
But she could breathe deep into my neck, 
             F#                              Fm
Let me know I'm just on the outside


Chorus:
e|-------------------------------------------|
B|-------------------------------------------|
G|-12---8---10--7---7-8-10-12--12--10--8-7---|
D|-------------------------------------------| (this is played with strings)
A|-------------------------------------------|
E|-------------------------------------------|
                     Cm                          
For the love of that girl, 
   
Tears swell,
     Gm          G7
you don't know why
                     Cm                                   
For the love of that girl, 

They never fall, 
          Gm        G7
they can never run dry
                      Bbm
For the love of that girl

Verse 4: (same as 1st add intro)
            Ab                      F#     Fm
Greed's all gone now, there's no question
          Bbm                                 Ab     F#           Fm
And I can see you push your hair behind your ears, Regain your balance
         Bbm                   Ab             F#                     Fm
Doesn't matter where she is tonight, Or with whoever she spends her time
         Bbm                 Ab                        F#                 Fm
If these arms were meant to hold her, They were never meant to hold her so tight

Chorus:
e|-------------------------------------------|
B|-------------------------------------------|
G|-12---8---10--7---7-8-10-12--12--10--8-7---|
D|-------------------------------------------| (this is played with strings)
A|-------------------------------------------|
E|-------------------------------------------|
                     Cm                          
For the love of that girl, 
   
Tears swell,
     Gm          G7
you don't know why
                     Cm                                   
For the love of that girl, 

They never fall, 
          Gm        G7
they can never run dry
                      Bbm
For the love of that girl

Outro:
    Bbm     Ab          F#           Fm
e|----------------------------------------------|
B|--2--2-2p1---2---2-2p1----2---2-2-1-1----1-2--|
G|-----------3-----------3---------------3------|
D|----------------------------------------------|   
A|----------------------------------------------|
E|----------------------------------------------|

************************************
| p   pull-off
************************************
Tap to rate this tab
 
# A B C D E F G H I J K L M N O P Q R S T U V W X Y Z