Song name
# A B C D E F G H I J K L M N O P Q R S T U V W X Y Z

Tindrum - Horoscope tab

----------------------------------------------------------------
Horoscope (INTRO) - Tindrum
-----------------------------------------------------------------
Tabbed by: ikjetil


e|---------------------------------------------------------------|
H|---------------------------------------------------------------|
G|------------------------------------------------------6--------|
D|-4-4-4---6---7-------4---6---7-------7---6---7--------7---6---7|
A|-5-5-5-5-5-5-5-5-5-5-5-5-5-5-5-5-5-5-7---7---7------------7---7|
E|---------------------------------------5---5---5-5-5----5---5--|

e|---------------------------------------------------------------|
H|---------------------------------------------------------------|
G|--------------------------------------6---------9--------------|
D|-4-4-4---6---7-------4---6-----7\---------9-----9--------------|
A|-5-5-5-5-5-5-5-5-5-5-5-5-5-5-5-5\---7-7-7-7-7-7----------------|
E|----------------------------------0----------------------------|

Tab Notation
----------------
 /\  - slide into or out of (from/to "nowhere")
Tap to rate this tab
# A B C D E F G H I J K L M N O P Q R S T U V W X Y Z