Song name
# A B C D E F G H I J K L M N O P Q R S T U V W X Y Z

Tindrum - Once Bitten Twice Shy tab

-----------------------------------------------------------------
Once Bitten Twice Shy (INTRO) - Tindrum
-----------------------------------------------------------------
Tabbed by: ikjetil


e|---------------------------------------------------------------|
H|---------8---7-------------------------------------------------|
G|-----5---7---7---------5---7/8\7-5-7-5-------------------------|
D|-----5---5---7---------5---7/8\7-5-7-5-------------------------|
A|-0-0---0---0---------0---0-------------------------------------|
E|---------------------------------------------------------------|
                                         A.H
e|---------------------------------------------------------------|
H|---------8---7----------10\8-----------------------------------|
G|-----5---7---7----------9 \7-----------5-----------------------|
D|-----5---5---7------0-0--------------5---7---------------------|
A|-0-0---0---0---------------------5h7---------------------------|
E|---------------------------------------------------------------|



Notasjon
----------------
 h   - hammer-on
 p   - pull-off
 b   - bend
 /\  - slide into or out of (from/to "nowhere")
 A.H - artifical harmonic
Tap to rate this tab
# A B C D E F G H I J K L M N O P Q R S T U V W X Y Z