Song name
# A B C D E F G H I J K L M N O P Q R S T U V W X Y Z

Tindrum - Stranger In Paradise tab

-------------------------------------------------------------------
                Stranger in Paradise- Tindrum INTRO
-------------------------------------------------------------------
Tabbed by: iKjetil
Email:

Tuning: e B G D A E

       ~         + +       ~       ~
e|-------|-----------|-------|-------|
B|-----6-|-6-4---6---|-----6-|-6-4---|
G|-5-3-5-|-5-3-5---5-|-5-3-5-|-5-3-5-|
D|-5-3---|-----5-----|-5-3---|-----5-|
A|-------|-----------|-------|-------|
E|-------|-----------|-------|-------|

       ~         + +              
e|-------|-----------|-------------------|
B|-----6-|-6-4---6---|-------------------|
G|-5-3-5-|-5-3-5---5-|-5-3-------3-------|
D|-5-3---|-----5-----|-5-3-3h4-5---5-3-5-|
A|-------|-----------|-------------------|
E|-------|-----------|-------------------|

             
e|----------------|
B|-6-4------------|
G|-5-3------------|
D|------3-3---3---|
A|----------6---1-|
E|----------------|

************************************

| /   slide up
| \   slide down
| h   hammer-on
| p   pull-off
| ~   vibrato
| +   harmonic
| x   Mute note
| b   Bend
| pb  Pre-bend
| br  Bend release
| pbr Pre-bend release
| brb Bend release bend
************************************
Tap to rate this tab
# A B C D E F G H I J K L M N O P Q R S T U V W X Y Z