Song name
# A B C D E F G H I J K L M N O P Q R S T U V W X Y Z

Tinie Tempah - Pass Out tab

hey this is my version of pass out

i seen a tab and its way off so i decided to tab it

plz rate and all comments are welcome :)

this is tuned to drop c

intro/main riff
|-------------------------------------------------------|
|-------------------------------------------------------|
|-------------------------------------------------------|
|--0----------------------0-----------------------------|
|--0-------------13-12-10-0-------------13-12-10-13-10--|
|--0-0-000-0-0-0----------0-0-000-0-0-0-----------------|

if u want the higher bit its
|----------------------------------------------------------------------|
|----------------------------------------------------------------------|
|------------------------15-14-12-----------------------15-14-12-15-12-|
|--12-12-121212-12-12-12----------12-12-121212-12-12-12----------------|
|----------------------------------------------------------------------|
|----------------------------------------------------------------------|

verse     first fret
|-------------------------|
|-------------------------|
|-------------------------|
|-------------------------|
|00000000-11111111--------|
|00000000-11111111--------|

reggae bit is
|--10-10--11-11-----------|
|--11-11--11-11-----------|
|--12-12--12-12-----------|
|--12-12--13-13-----------|
|--10-10--13-13-----------|
|-------------------------|

depending on what version youve got
this bits before the speed garage bit

|-------------------------------------------------------------------------|
|-------------------------------------------------------------------------|
|--------12---------------12----------12----------------12----------12----|
|-----------13-10-13---------13----------13-10-13----------13----------13-|
|-------------------------------------------------------------------------|
|--0-0-0------------0-0-0-------0-0-0-------------0-0-0-------0-0-0-------|


thats about it

hope it helps and enjoy the song
Tap to rate this tab
 
# A B C D E F G H I J K L M N O P Q R S T U V W X Y Z