Tinie Tempah - Pass Out tab

Main riff:
|----------------------------------------------|
|----------------------------------------------|
|------------------------13-12-10-10-10-10-----|
|--10-10-10-10-10-10-8-8-------------------8-8-|
|----------------------------------------------|
|----------------------------------------------|

|----------------------------------------------|
|----------------------------------------------|
|------------------------13-13-10-10-13-13-----|
|--10-10-10-10-10-10-8-8-------------------8-8-|
|----------------------------------------------|
|----------------------------------------------|

verse:
|--------------------------------|
|--------------------------------|
|--------------------------------|
|--------------------------------|
|------------------4-4-4-4-4-4-4-|
|--1-1-1-1-1-1-1-1---------------|
Tap to rate this tab
 
# A B C D E F G H I J K L M N O P Q R S T U V W X Y Z