Tinie Tempah - Written In The Stars tab

tabbed by:welshmark96
email:danieltjames@gmail.com

tuning:standard

e|-12----12--10--10--12--13----13--12--10-------------12--10------|
B|-----------------------------------------13--13-------------13--|
G|----------------------------------------------------------------|
D|----------------------------------------------------------------|
A|----------------------------------------------------------------|
E|----------------------------------------------------------------|


e|10--10----12--10-------10--12-----------------------------------|
B|------------------13--------------------------------------------|
G|----------------------------------------------------------------|
D|----------------------------------------------------------------|
A|----------------------------------------------------------------|
E|----------------------------------------------------------------|


e|-12----12--10--10--12--13----13--12--10-------------12--10------|
B|-----------------------------------------13--13-------------13--|
G|----------------------------------------------------------------|
D|----------------------------------------------------------------|
A|----------------------------------------------------------------|
E|----------------------------------------------------------------|


e|10--10----------------------------------------------------------|
B|----------------------------------------------------------------|
G|----------------------------------------------------------------|
D|----------------------------------------------------------------|
A|----------------------------------------------------------------|
E|----------------------------------------------------------------|

Dont be suprised if its not right I only worked it out in a couple of minutes. :)
Tap to rate this tab
 
# A B C D E F G H I J K L M N O P Q R S T U V W X Y Z