Tinie Tempah - Written In The Stars tab

This tab is 99% correct
Standard tuning
Enjoy :)

e|-12----12--10--12--10--12--13-------13--12--13--10--------------|
B|----------------------------------------------------13--13------|
G|----------------------------------------------------------------|
D|----------------------------------------------------------------|
A|----------------------------------------------------------------|
E|----------------------------------------------------------------|


e|-12--10--12------12--10-------10------10------10--12------------|
B|-------------13-------------------13------13--------------------|
G|----------------------------------------------------------------|
D|----------------------------------------------------------------|
A|----------------------------------------------------------------|
E|----------------------------------------------------------------|


e|-12--10--12--10--12--13-------13--12--13--10--------------------|
B|----------------------------------------------13--13------------|
G|----------------------------------------------------------------|
D|----------------------------------------------------------------|
A|----------------------------------------------------------------|
E|----------------------------------------------------------------|


e|-12--10--12------12--10-------10------10------------------------|
B|-------------13-------------------13------13--12--10------------|
G|----------------------------------------------------------------|
D|----------------------------------------------------------------|
A|----------------------------------------------------------------|
E|----------------------------------------------------------------|
Tap to rate this tab
 
# A B C D E F G H I J K L M N O P Q R S T U V W X Y Z